ISO-10303-21;
HEADER;
/* Generated by software containing ST-Developer
 * from STEP Tools, Inc. (www.steptools.com) 
 */
/* OPTION: using custom schema-name function */

FILE_DESCRIPTION(
/* description */ (''),
/* implementation_level */ '2;1');

FILE_NAME(
/* name */ 'N5BS-5.01H7-EB45_Detailed.stp',
/* time_stamp */ '2024-09-06T16:23:08+06:00',
/* author */ (''),
/* organization */ (''),
/* preprocessor_version */ 'ST-DEVELOPER v18.102',
/* originating_system */ 'SIEMENS PLM Software NX2206.8101',
/* authorisation */ '');

FILE_SCHEMA (('AUTOMOTIVE_DESIGN { 1 0 10303 214 3 1 1 1 }'));
ENDSEC;

DATA;
#10=CONSTRUCTIVE_GEOMETRY_REPRESENTATION_RELATIONSHIP(
'supplemental geometry','',#34,#11);
#11=CONSTRUCTIVE_GEOMETRY_REPRESENTATION('supplemental geometry',(#200,
#201,#202),#335);
#12=GEOMETRICALLY_BOUNDED_WIREFRAME_SHAPE_REPRESENTATION(
'N5BS-5.01H7-EB45,RX2000_step_objects-None',(#35),#335);
#13=PROPERTY_DEFINITION_REPRESENTATION(#17,#15);
#14=PROPERTY_DEFINITION_REPRESENTATION(#18,#16);
#15=REPRESENTATION('',(#19),#335);
#16=REPRESENTATION('',(#20),#335);
#17=PROPERTY_DEFINITION('pmi validation property','',#25);
#18=PROPERTY_DEFINITION('pmi validation property','',#25);
#19=VALUE_REPRESENTATION_ITEM('number of annotations',COUNT_MEASURE(0.));
#20=VALUE_REPRESENTATION_ITEM('number of views',COUNT_MEASURE(0.));
#21=SHAPE_REPRESENTATION_RELATIONSHIP('None',
'relationship between N5BS-5.01H7-EB45,RX2000_step_objects-None and N5
BS-5.01H7-EB45,RX2000_step_objects-None',#34,#23);
#22=SHAPE_REPRESENTATION_RELATIONSHIP('None',
'relationship between N5BS-5.01H7-EB45,RX2000_step_objects-None and N5
BS-5.01H7-EB45,RX2000_step_objects-None',#34,#12);
#23=ADVANCED_BREP_SHAPE_REPRESENTATION(
'N5BS-5.01H7-EB45,RX2000_step_objects-None',(#50,#51),#335);
#24=SHAPE_DEFINITION_REPRESENTATION(#25,#34);
#25=PRODUCT_DEFINITION_SHAPE('','',#26);
#26=PRODUCT_DEFINITION(' ','',#28,#27);
#27=PRODUCT_DEFINITION_CONTEXT('part definition',#33,'design');
#28=PRODUCT_DEFINITION_FORMATION_WITH_SPECIFIED_SOURCE(' ',' ',#30,
 .NOT_KNOWN.);
#29=PRODUCT_RELATED_PRODUCT_CATEGORY('part','',(#30));
#30=PRODUCT('N5BS-5.01H7-EB45,RX2000_step_objects',
'N5BS-5.01H7-EB45,RX2000_step_objects',' ',(#31));
#31=PRODUCT_CONTEXT(' ',#33,'mechanical');
#32=APPLICATION_PROTOCOL_DEFINITION('international standard',
'automotive_design',2010,#33);
#33=APPLICATION_CONTEXT(
'core data for automotive mechanical design processes');
#34=SHAPE_REPRESENTATION('N5BS-5.01H7-EB45,RX2000_step_objects-None',(#199),
#335);
#35=GEOMETRIC_CURVE_SET('None',(#271,#272,#273,#274,#165));
#36=SURFACE_OF_REVOLUTION('',#38,#37);
#37=AXIS1_PLACEMENT('',#332,#267);
#38=LINE('',#331,#39);
#39=VECTOR('',#266,0.704054329943968);
#40=SURFACE_STYLE_USAGE(.BOTH.,#42);
#41=SURFACE_STYLE_USAGE(.BOTH.,#43);
#42=SURFACE_SIDE_STYLE('',(#44));
#43=SURFACE_SIDE_STYLE('',(#45));
#44=SURFACE_STYLE_FILL_AREA(#46);
#45=SURFACE_STYLE_FILL_AREA(#47);
#46=FILL_AREA_STYLE('',(#48));
#47=FILL_AREA_STYLE('',(#49));
#48=FILL_AREA_STYLE_COLOUR('',#197);
#49=FILL_AREA_STYLE_COLOUR('',#198);
#50=MANIFOLD_SOLID_BREP('NOCUT',#52);
#51=MANIFOLD_SOLID_BREP('CUT',#53);
#52=CLOSED_SHELL('',(#65,#66,#67,#68,#69,#70,#71));
#53=CLOSED_SHELL('',(#72,#73,#74,#75));
#54=CYLINDRICAL_SURFACE('',#210,3.);
#55=CYLINDRICAL_SURFACE('',#214,2.441);
#56=CYLINDRICAL_SURFACE('',#221,2.505);
#57=PLANE('',#207);
#58=PLANE('',#215);
#59=PLANE('',#217);
#60=PLANE('',#219);
#61=FACE_OUTER_BOUND('',#95,.T.);
#62=FACE_OUTER_BOUND('',#104,.T.);
#63=FACE_OUTER_BOUND('',#105,.T.);
#64=FACE_OUTER_BOUND('',#106,.T.);
#65=ADVANCED_FACE('NONE',(#79,#80),#76,.T.);
#66=ADVANCED_FACE('NONE',(#61),#57,.T.);
#67=ADVANCED_FACE('NONE',(#81,#82),#77,.T.);
#68=ADVANCED_FACE('NONE',(#83,#84),#54,.T.);
#69=ADVANCED_FACE('NONE',(#85,#86),#78,.T.);
#70=ADVANCED_FACE('NONE',(#87,#88),#55,.T.);
#71=ADVANCED_FACE('',(#62),#58,.T.);
#72=ADVANCED_FACE('',(#63),#59,.F.);
#73=ADVANCED_FACE('',(#64),#60,.F.);
#74=ADVANCED_FACE('',(#89,#90),#36,.F.);
#75=ADVANCED_FACE('',(#91,#92),#56,.T.);
#76=CONICAL_SURFACE('',#205,3.,20.4387475969245);
#77=CONICAL_SURFACE('',#209,3.,45.0000000000001);
#78=CONICAL_SURFACE('',#213,2.441,10.0000000000001);
#79=FACE_BOUND('',#93,.T.);
#80=FACE_BOUND('',#94,.T.);
#81=FACE_BOUND('',#96,.T.);
#82=FACE_BOUND('',#97,.T.);
#83=FACE_BOUND('',#98,.T.);
#84=FACE_BOUND('',#99,.T.);
#85=FACE_BOUND('',#100,.T.);
#86=FACE_BOUND('',#101,.T.);
#87=FACE_BOUND('',#102,.T.);
#88=FACE_BOUND('',#103,.T.);
#89=FACE_BOUND('',#107,.T.);
#90=FACE_BOUND('',#108,.T.);
#91=FACE_BOUND('',#109,.T.);
#92=FACE_BOUND('',#110,.T.);
#93=EDGE_LOOP('',(#111));
#94=EDGE_LOOP('',(#112));
#95=EDGE_LOOP('',(#113));
#96=EDGE_LOOP('',(#114));
#97=EDGE_LOOP('',(#115));
#98=EDGE_LOOP('',(#116));
#99=EDGE_LOOP('',(#117));
#100=EDGE_LOOP('',(#118));
#101=EDGE_LOOP('',(#119));
#102=EDGE_LOOP('',(#120));
#103=EDGE_LOOP('',(#121));
#104=EDGE_LOOP('',(#122));
#105=EDGE_LOOP('',(#123));
#106=EDGE_LOOP('',(#124));
#107=EDGE_LOOP('',(#125));
#108=EDGE_LOOP('',(#126));
#109=EDGE_LOOP('',(#127));
#110=EDGE_LOOP('',(#128));
#111=ORIENTED_EDGE('',*,*,#138,.F.);
#112=ORIENTED_EDGE('',*,*,#139,.T.);
#113=ORIENTED_EDGE('',*,*,#140,.F.);
#114=ORIENTED_EDGE('',*,*,#140,.T.);
#115=ORIENTED_EDGE('',*,*,#141,.F.);
#116=ORIENTED_EDGE('',*,*,#141,.T.);
#117=ORIENTED_EDGE('',*,*,#139,.F.);
#118=ORIENTED_EDGE('',*,*,#142,.F.);
#119=ORIENTED_EDGE('',*,*,#143,.T.);
#120=ORIENTED_EDGE('',*,*,#143,.F.);
#121=ORIENTED_EDGE('',*,*,#138,.T.);
#122=ORIENTED_EDGE('',*,*,#142,.T.);
#123=ORIENTED_EDGE('',*,*,#144,.T.);
#124=ORIENTED_EDGE('',*,*,#145,.F.);
#125=ORIENTED_EDGE('',*,*,#145,.T.);
#126=ORIENTED_EDGE('',*,*,#146,.F.);
#127=ORIENTED_EDGE('',*,*,#146,.T.);
#128=ORIENTED_EDGE('',*,*,#144,.F.);
#129=VERTEX_POINT('',#305);
#130=VERTEX_POINT('',#307);
#131=VERTEX_POINT('',#310);
#132=VERTEX_POINT('',#313);
#133=VERTEX_POINT('',#317);
#134=VERTEX_POINT('',#319);
#135=VERTEX_POINT('',#324);
#136=VERTEX_POINT('',#327);
#137=VERTEX_POINT('',#330);
#138=EDGE_CURVE('NONE',#129,#129,#147,.T.);
#139=EDGE_CURVE('NONE',#130,#130,#148,.T.);
#140=EDGE_CURVE('NONE',#131,#131,#149,.T.);
#141=EDGE_CURVE('NONE',#132,#132,#150,.T.);
#142=EDGE_CURVE('NONE',#133,#133,#151,.T.);
#143=EDGE_CURVE('NONE',#134,#134,#152,.T.);
#144=EDGE_CURVE('',#135,#135,#153,.T.);
#145=EDGE_CURVE('',#136,#136,#154,.T.);
#146=EDGE_CURVE('',#137,#137,#155,.T.);
#147=CIRCLE('',#203,2.441);
#148=CIRCLE('',#204,3.);
#149=CIRCLE('',#206,2.6);
#150=CIRCLE('',#208,3.);
#151=CIRCLE('',#211,2.5035);
#152=CIRCLE('',#212,2.441);
#153=CIRCLE('',#216,2.505);
#154=CIRCLE('',#218,2.00767031156745);
#155=CIRCLE('',#220,2.505);
#156=CURVE_STYLE('',#161,POSITIVE_LENGTH_MEASURE(0.7),#160);
#157=CURVE_STYLE('',#162,POSITIVE_LENGTH_MEASURE(0.7),#195);
#158=CURVE_STYLE('',#163,POSITIVE_LENGTH_MEASURE(0.7),#195);
#159=CURVE_STYLE('',#164,POSITIVE_LENGTH_MEASURE(0.7),#195);
#160=DRAUGHTING_PRE_DEFINED_COLOUR('blue');
#161=DRAUGHTING_PRE_DEFINED_CURVE_FONT('continuous');
#162=DRAUGHTING_PRE_DEFINED_CURVE_FONT('continuous');
#163=DRAUGHTING_PRE_DEFINED_CURVE_FONT('continuous');
#164=DRAUGHTING_PRE_DEFINED_CURVE_FONT('continuous');
#165=B_SPLINE_CURVE_WITH_KNOTS('CUTTING PART LINE',5,(#275,#276,#277,#278,
#279,#280,#281,#282,#283,#284,#285,#286,#287,#288,#289,#290,#291,#292,#293,
#294,#295,#296,#297,#298,#299,#300),.UNSPECIFIED.,.T.,.F.,(6,5,5,5,5,6),
(0.,0.417847359825174,0.487755671414062,0.512250265542294,0.912774363635768,
1.),.UNSPECIFIED.);
#166=PRESENTATION_LAYER_ASSIGNMENT('1','Layer 1',(#271,#272,#273,#274,#165,
#200,#201,#202,#50,#51));
#167=STYLED_ITEM('',(#177),#271);
#168=STYLED_ITEM('',(#178),#272);
#169=STYLED_ITEM('',(#179),#273);
#170=STYLED_ITEM('',(#180),#274);
#171=STYLED_ITEM('',(#181),#165);
#172=STYLED_ITEM('',(#182),#200);
#173=STYLED_ITEM('',(#183),#201);
#174=STYLED_ITEM('',(#184),#202);
#175=STYLED_ITEM('',(#185),#50);
#176=STYLED_ITEM('',(#186),#51);
#177=PRESENTATION_STYLE_ASSIGNMENT((#187));
#178=PRESENTATION_STYLE_ASSIGNMENT((#188));
#179=PRESENTATION_STYLE_ASSIGNMENT((#189));
#180=PRESENTATION_STYLE_ASSIGNMENT((#190));
#181=PRESENTATION_STYLE_ASSIGNMENT((#156));
#182=PRESENTATION_STYLE_ASSIGNMENT((#157));
#183=PRESENTATION_STYLE_ASSIGNMENT((#158));
#184=PRESENTATION_STYLE_ASSIGNMENT((#159));
#185=PRESENTATION_STYLE_ASSIGNMENT((#40));
#186=PRESENTATION_STYLE_ASSIGNMENT((#41));
#187=POINT_STYLE('',#191,POSITIVE_LENGTH_MEASURE(3.),#195);
#188=POINT_STYLE('',#192,POSITIVE_LENGTH_MEASURE(3.),#195);
#189=POINT_STYLE('',#193,POSITIVE_LENGTH_MEASURE(3.),#195);
#190=POINT_STYLE('',#194,POSITIVE_LENGTH_MEASURE(3.),#196);
#191=PRE_DEFINED_POINT_MARKER_SYMBOL('plus');
#192=PRE_DEFINED_POINT_MARKER_SYMBOL('plus');
#193=PRE_DEFINED_POINT_MARKER_SYMBOL('plus');
#194=PRE_DEFINED_POINT_MARKER_SYMBOL('plus');
#195=COLOUR_RGB('Medium Maroon',0.6,0.4,0.4);
#196=COLOUR_RGB('Medium Royal',0.301960784313725,0.427450980392157,0.701960784313725);
#197=COLOUR_RGB('medium gray',0.490196078431373,0.490196078431373,0.490196078431373);
#198=COLOUR_RGB('light gray',0.8,0.8,0.8);
#199=AXIS2_PLACEMENT_3D('',#270,#222,#223);
#200=AXIS2_PLACEMENT_3D('PCS',#301,#224,#225);
#201=AXIS2_PLACEMENT_3D('MCS',#302,#226,#227);
#202=AXIS2_PLACEMENT_3D('CIP',#303,#228,#229);
#203=AXIS2_PLACEMENT_3D('',#304,#230,#231);
#204=AXIS2_PLACEMENT_3D('',#306,#232,#233);
#205=AXIS2_PLACEMENT_3D('',#308,#234,#235);
#206=AXIS2_PLACEMENT_3D('',#309,#236,#237);
#207=AXIS2_PLACEMENT_3D('',#311,#238,#239);
#208=AXIS2_PLACEMENT_3D('',#312,#240,#241);
#209=AXIS2_PLACEMENT_3D('',#314,#242,#243);
#210=AXIS2_PLACEMENT_3D('',#315,#244,#245);
#211=AXIS2_PLACEMENT_3D('',#316,#246,#247);
#212=AXIS2_PLACEMENT_3D('',#318,#248,#249);
#213=AXIS2_PLACEMENT_3D('',#320,#250,#251);
#214=AXIS2_PLACEMENT_3D('',#321,#252,#253);
#215=AXIS2_PLACEMENT_3D('',#322,#254,#255);
#216=AXIS2_PLACEMENT_3D('',#323,#256,#257);
#217=AXIS2_PLACEMENT_3D('',#325,#258,#259);
#218=AXIS2_PLACEMENT_3D('',#326,#260,#261);
#219=AXIS2_PLACEMENT_3D('',#328,#262,#263);
#220=AXIS2_PLACEMENT_3D('',#329,#264,#265);
#221=AXIS2_PLACEMENT_3D('',#333,#268,#269);
#222=DIRECTION('',(0.,0.,1.));
#223=DIRECTION('',(1.,0.,0.));
#224=DIRECTION('',(0.,0.,1.));
#225=DIRECTION('',(1.,0.,0.));
#226=DIRECTION('',(0.,0.,1.));
#227=DIRECTION('',(1.,0.,0.));
#228=DIRECTION('',(0.,0.,1.));
#229=DIRECTION('',(1.,0.,0.));
#230=DIRECTION('',(0.,0.,-1.));
#231=DIRECTION('',(-1.,0.,0.));
#232=DIRECTION('',(0.,0.,-1.));
#233=DIRECTION('',(-1.,0.,0.));
#234=DIRECTION('',(0.,0.,1.));
#235=DIRECTION('',(1.,0.,-9.23543997858113E-17));
#236=DIRECTION('',(0.,0.,-1.));
#237=DIRECTION('',(-1.,0.,0.));
#238=DIRECTION('',(0.,0.,1.));
#239=DIRECTION('',(1.,0.,0.));
#240=DIRECTION('',(0.,0.,-1.));
#241=DIRECTION('',(-1.,0.,0.));
#242=DIRECTION('',(0.,0.,-1.));
#243=DIRECTION('',(-1.,0.,4.15088369127051E-17));
#244=DIRECTION('',(0.,0.,-1.));
#245=DIRECTION('',(-1.,0.,0.));
#246=DIRECTION('',(0.,0.,-1.));
#247=DIRECTION('',(-1.,0.,0.));
#248=DIRECTION('',(0.,0.,-1.));
#249=DIRECTION('',(-1.,0.,0.));
#250=DIRECTION('',(0.,0.,-1.));
#251=DIRECTION('',(-1.,0.,-2.32890494474728E-16));
#252=DIRECTION('',(0.,0.,-1.));
#253=DIRECTION('',(-1.,0.,0.));
#254=DIRECTION('',(0.,0.,-1.));
#255=DIRECTION('',(-1.,0.,0.));
#256=DIRECTION('',(0.,0.,1.));
#257=DIRECTION('',(-1.,0.,0.));
#258=DIRECTION('',(0.,0.,-1.));
#259=DIRECTION('',(-1.,0.,0.));
#260=DIRECTION('',(0.,0.,1.));
#261=DIRECTION('',(1.,0.,0.));
#262=DIRECTION('',(0.,0.,1.));
#263=DIRECTION('',(1.,0.,0.));
#264=DIRECTION('',(0.,0.,1.));
#265=DIRECTION('',(1.,0.,0.));
#266=DIRECTION('',(-0.706621627149352,0.0370324702722638,-0.706621873557801));
#267=DIRECTION('',(0.,0.,1.));
#268=DIRECTION('',(0.,0.,-1.));
#269=DIRECTION('',(-1.,0.,0.));
#270=CARTESIAN_POINT('',(0.,0.,0.));
#271=CARTESIAN_POINT('',(0.,0.,0.));
#272=CARTESIAN_POINT('',(0.,0.,-25.));
#273=CARTESIAN_POINT('',(0.,0.,-55.));
#274=CARTESIAN_POINT('CRP',(-2.505,0.,-55.));
#275=CARTESIAN_POINT('',(0.,0.,-43.));
#276=CARTESIAN_POINT('',(0.,0.,-45.4));
#277=CARTESIAN_POINT('',(0.,0.,-47.8));
#278=CARTESIAN_POINT('',(0.,0.,-50.2));
#279=CARTESIAN_POINT('',(0.,0.,-52.6));
#280=CARTESIAN_POINT('',(0.,0.,-55.));
#281=CARTESIAN_POINT('',(-0.401534062313491,0.,-55.));
#282=CARTESIAN_POINT('',(-0.803068124626982,0.,-55.));
#283=CARTESIAN_POINT('',(-1.20460218694047,0.,-55.));
#284=CARTESIAN_POINT('',(-1.60613624925396,0.,-55.));
#285=CARTESIAN_POINT('',(-2.00767031156745,1.91429446079472E-16,-55.));
#286=CARTESIAN_POINT('',(-2.10711508471656,3.82858892158944E-16,-54.900478810493));
#287=CARTESIAN_POINT('',(-2.20657306763251,3.82858892158944E-16,-54.8009708205422));
#288=CARTESIAN_POINT('',(-2.30604100640663,1.76474020604513E-16,-54.7014727809886));
#289=CARTESIAN_POINT('',(-2.40551710812031,1.76474020604513E-16,-54.6019829005238));
#290=CARTESIAN_POINT('',(-2.505,8.82370103022566E-17,-54.5024998102885));
#291=CARTESIAN_POINT('',(-2.505,0.,-52.2019998482308));
#292=CARTESIAN_POINT('',(-2.505,0.,-49.9014998861731));
#293=CARTESIAN_POINT('',(-2.505,0.,-47.6009999241154));
#294=CARTESIAN_POINT('',(-2.505,0.,-45.3004999620577));
#295=CARTESIAN_POINT('',(-2.505,0.,-43.));
#296=CARTESIAN_POINT('',(-2.004,0.,-43.));
#297=CARTESIAN_POINT('',(-1.503,0.,-43.));
#298=CARTESIAN_POINT('',(-1.002,0.,-43.));
#299=CARTESIAN_POINT('',(-0.501,0.,-43.));
#300=CARTESIAN_POINT('',(0.,0.,-43.));
#301=CARTESIAN_POINT('',(0.,0.,0.));
#302=CARTESIAN_POINT('',(0.,0.,-25.));
#303=CARTESIAN_POINT('',(0.,0.,-55.));
#304=CARTESIAN_POINT('',(0.,0.,-26.5));
#305=CARTESIAN_POINT('',(-2.441,0.,-26.5));
#306=CARTESIAN_POINT('',(0.,0.,-25.));
#307=CARTESIAN_POINT('',(-3.,0.,-25.));
#308=CARTESIAN_POINT('',(0.,0.,-25.));
#309=CARTESIAN_POINT('',(0.,0.,0.));
#310=CARTESIAN_POINT('',(-2.6,0.,0.));
#311=CARTESIAN_POINT('',(0.,0.,0.));
#312=CARTESIAN_POINT('',(0.,0.,-0.399999999999998));
#313=CARTESIAN_POINT('',(-3.,0.,-0.399999999999998));
#314=CARTESIAN_POINT('',(0.,0.,-0.399999999999998));
#315=CARTESIAN_POINT('',(0.,0.,-55.));
#316=CARTESIAN_POINT('',(0.,0.,-43.));
#317=CARTESIAN_POINT('',(-2.5035,0.,-43.));
#318=CARTESIAN_POINT('',(0.,0.,-42.6455448862739));
#319=CARTESIAN_POINT('',(-2.441,0.,-42.6455448862739));
#320=CARTESIAN_POINT('',(0.,0.,-42.6455448862739));
#321=CARTESIAN_POINT('',(0.,0.,-55.));
#322=CARTESIAN_POINT('',(0.,-0.0167043106341934,-43.));
#323=CARTESIAN_POINT('',(0.,0.,-43.));
#324=CARTESIAN_POINT('',(-2.505,0.,-43.));
#325=CARTESIAN_POINT('',(2.97931059944766,-0.0247789535385416,-43.));
#326=CARTESIAN_POINT('',(0.,0.,-55.));
#327=CARTESIAN_POINT('',(2.00767031156745,0.,-55.));
#328=CARTESIAN_POINT('',(2.97931059944766,-0.0247789535385416,-55.));
#329=CARTESIAN_POINT('',(0.,0.,-54.5024998102885));
#330=CARTESIAN_POINT('',(2.505,0.,-54.5024998102885));
#331=CARTESIAN_POINT('',(2.50499999876651,7.86117335612827E-5,-54.5024998102885));
#332=CARTESIAN_POINT('',(0.,0.,-55.));
#333=CARTESIAN_POINT('',(0.,0.,-55.));
#334=MECHANICAL_DESIGN_GEOMETRIC_PRESENTATION_REPRESENTATION('',(#167,#168,
#169,#170,#171,#172,#173,#174,#175,#176),#335);
#335=(
GEOMETRIC_REPRESENTATION_CONTEXT(3)
GLOBAL_UNCERTAINTY_ASSIGNED_CONTEXT((#336))
GLOBAL_UNIT_ASSIGNED_CONTEXT((#342,#338,#337))
REPRESENTATION_CONTEXT('N5BS-5','TOP_LEVEL_ASSEMBLY_PART')
);
#336=UNCERTAINTY_MEASURE_WITH_UNIT(LENGTH_MEASURE(2.E-5),#342,
'DISTANCE_ACCURACY_VALUE','Maximum Tolerance applied to model');
#337=(
NAMED_UNIT(*)
SI_UNIT($,.STERADIAN.)
SOLID_ANGLE_UNIT()
);
#338=(
CONVERSION_BASED_UNIT('DEGREE',#340)
NAMED_UNIT(#339)
PLANE_ANGLE_UNIT()
);
#339=DIMENSIONAL_EXPONENTS(0.,0.,0.,0.,0.,0.,0.);
#340=PLANE_ANGLE_MEASURE_WITH_UNIT(PLANE_ANGLE_MEASURE(0.0174532925),#341);
#341=(
NAMED_UNIT(*)
PLANE_ANGLE_UNIT()
SI_UNIT($,.RADIAN.)
);
#342=(
LENGTH_UNIT()
NAMED_UNIT(*)
SI_UNIT(.MILLI.,.METRE.)
);
ENDSEC;
END-ISO-10303-21;
