ISO-10303-21;
HEADER;
/* Generated by software containing ST-Developer
 * from STEP Tools, Inc. (www.steptools.com) 
 */
/* OPTION: using custom schema-name function */

FILE_DESCRIPTION(
/* description */ (''),
/* implementation_level */ '2;1');

FILE_NAME(
/* name */ 'N5BS-7.99H7-EB45_Detailed.stp',
/* time_stamp */ '2024-09-06T11:27:16+06:00',
/* author */ (''),
/* organization */ (''),
/* preprocessor_version */ 'ST-DEVELOPER v18.102',
/* originating_system */ 'SIEMENS PLM Software NX2206.8101',
/* authorisation */ '');

FILE_SCHEMA (('AUTOMOTIVE_DESIGN { 1 0 10303 214 3 1 1 1 }'));
ENDSEC;

DATA;
#10=CONSTRUCTIVE_GEOMETRY_REPRESENTATION_RELATIONSHIP(
'supplemental geometry','',#34,#11);
#11=CONSTRUCTIVE_GEOMETRY_REPRESENTATION('supplemental geometry',(#200,
#201,#202),#338);
#12=GEOMETRICALLY_BOUNDED_WIREFRAME_SHAPE_REPRESENTATION(
'N5BS-7.99H7-EB45,RX2000_step_objects-None',(#35),#338);
#13=PROPERTY_DEFINITION_REPRESENTATION(#17,#15);
#14=PROPERTY_DEFINITION_REPRESENTATION(#18,#16);
#15=REPRESENTATION('',(#19),#338);
#16=REPRESENTATION('',(#20),#338);
#17=PROPERTY_DEFINITION('pmi validation property','',#25);
#18=PROPERTY_DEFINITION('pmi validation property','',#25);
#19=VALUE_REPRESENTATION_ITEM('number of annotations',COUNT_MEASURE(0.));
#20=VALUE_REPRESENTATION_ITEM('number of views',COUNT_MEASURE(0.));
#21=SHAPE_REPRESENTATION_RELATIONSHIP('None',
'relationship between N5BS-7.99H7-EB45,RX2000_step_objects-None and N5
BS-7.99H7-EB45,RX2000_step_objects-None',#34,#23);
#22=SHAPE_REPRESENTATION_RELATIONSHIP('None',
'relationship between N5BS-7.99H7-EB45,RX2000_step_objects-None and N5
BS-7.99H7-EB45,RX2000_step_objects-None',#34,#12);
#23=ADVANCED_BREP_SHAPE_REPRESENTATION(
'N5BS-7.99H7-EB45,RX2000_step_objects-None',(#51,#52),#338);
#24=SHAPE_DEFINITION_REPRESENTATION(#25,#34);
#25=PRODUCT_DEFINITION_SHAPE('','',#26);
#26=PRODUCT_DEFINITION(' ','',#28,#27);
#27=PRODUCT_DEFINITION_CONTEXT('part definition',#33,'design');
#28=PRODUCT_DEFINITION_FORMATION_WITH_SPECIFIED_SOURCE(' ',' ',#30,
 .NOT_KNOWN.);
#29=PRODUCT_RELATED_PRODUCT_CATEGORY('part','',(#30));
#30=PRODUCT('N5BS-7.99H7-EB45,RX2000_step_objects',
'N5BS-7.99H7-EB45,RX2000_step_objects',' ',(#31));
#31=PRODUCT_CONTEXT(' ',#33,'mechanical');
#32=APPLICATION_PROTOCOL_DEFINITION('international standard',
'automotive_design',2010,#33);
#33=APPLICATION_CONTEXT(
'core data for automotive mechanical design processes');
#34=SHAPE_REPRESENTATION('N5BS-7.99H7-EB45,RX2000_step_objects-None',(#199),
#338);
#35=GEOMETRIC_CURVE_SET('None',(#268,#269,#270,#271,#165));
#36=SURFACE_OF_REVOLUTION('',#38,#37);
#37=AXIS1_PLACEMENT('',#334,#262);
#38=LINE('',#333,#39);
#39=VECTOR('',#261,0.702639144050897);
#40=(
BOUNDED_CURVE()
B_SPLINE_CURVE(3,(#325,#326,#327,#328,#329,#330,#331),.UNSPECIFIED.,.T.,
 .F.)
B_SPLINE_CURVE_WITH_KNOTS((1,3,3,3,1),(-0.5,0.,0.5,1.,1.5),
 .UNSPECIFIED.)
CURVE()
GEOMETRIC_REPRESENTATION_ITEM()
RATIONAL_B_SPLINE_CURVE((1.,0.333333333333333,0.333333333333333,1.,0.333333333333333,
0.333333333333333,1.))
REPRESENTATION_ITEM('')
);
#41=SURFACE_STYLE_USAGE(.BOTH.,#43);
#42=SURFACE_STYLE_USAGE(.BOTH.,#44);
#43=SURFACE_SIDE_STYLE('',(#45));
#44=SURFACE_SIDE_STYLE('',(#46));
#45=SURFACE_STYLE_FILL_AREA(#47);
#46=SURFACE_STYLE_FILL_AREA(#48);
#47=FILL_AREA_STYLE('',(#49));
#48=FILL_AREA_STYLE('',(#50));
#49=FILL_AREA_STYLE_COLOUR('',#197);
#50=FILL_AREA_STYLE_COLOUR('',#198);
#51=MANIFOLD_SOLID_BREP('NOCUT',#53);
#52=MANIFOLD_SOLID_BREP('CUT',#54);
#53=CLOSED_SHELL('',(#66,#67,#68,#69,#70,#71,#72));
#54=CLOSED_SHELL('',(#73,#74,#75,#76));
#55=CYLINDRICAL_SURFACE('',#210,5.);
#56=CYLINDRICAL_SURFACE('',#214,3.7435);
#57=CYLINDRICAL_SURFACE('',#218,3.995);
#58=PLANE('',#207);
#59=PLANE('',#215);
#60=PLANE('',#219);
#61=PLANE('',#220);
#62=FACE_OUTER_BOUND('',#96,.T.);
#63=FACE_OUTER_BOUND('',#105,.T.);
#64=FACE_OUTER_BOUND('',#110,.T.);
#65=FACE_OUTER_BOUND('',#111,.T.);
#66=ADVANCED_FACE('NONE',(#80,#81),#77,.T.);
#67=ADVANCED_FACE('NONE',(#62),#58,.T.);
#68=ADVANCED_FACE('NONE',(#82,#83),#78,.T.);
#69=ADVANCED_FACE('NONE',(#84,#85),#55,.T.);
#70=ADVANCED_FACE('NONE',(#86,#87),#79,.T.);
#71=ADVANCED_FACE('NONE',(#88,#89),#56,.T.);
#72=ADVANCED_FACE('',(#63),#59,.T.);
#73=ADVANCED_FACE('',(#90,#91),#57,.T.);
#74=ADVANCED_FACE('',(#92,#93),#36,.F.);
#75=ADVANCED_FACE('',(#64),#60,.F.);
#76=ADVANCED_FACE('',(#65),#61,.T.);
#77=CONICAL_SURFACE('',#205,5.,26.6841024136699);
#78=CONICAL_SURFACE('',#209,5.,45.0000000000002);
#79=CONICAL_SURFACE('',#213,3.7435,10.);
#80=FACE_BOUND('',#94,.T.);
#81=FACE_BOUND('',#95,.T.);
#82=FACE_BOUND('',#97,.T.);
#83=FACE_BOUND('',#98,.T.);
#84=FACE_BOUND('',#99,.T.);
#85=FACE_BOUND('',#100,.T.);
#86=FACE_BOUND('',#101,.T.);
#87=FACE_BOUND('',#102,.T.);
#88=FACE_BOUND('',#103,.T.);
#89=FACE_BOUND('',#104,.T.);
#90=FACE_BOUND('',#106,.T.);
#91=FACE_BOUND('',#107,.T.);
#92=FACE_BOUND('',#108,.T.);
#93=FACE_BOUND('',#109,.T.);
#94=EDGE_LOOP('',(#112));
#95=EDGE_LOOP('',(#113));
#96=EDGE_LOOP('',(#114));
#97=EDGE_LOOP('',(#115));
#98=EDGE_LOOP('',(#116));
#99=EDGE_LOOP('',(#117));
#100=EDGE_LOOP('',(#118));
#101=EDGE_LOOP('',(#119));
#102=EDGE_LOOP('',(#120));
#103=EDGE_LOOP('',(#121));
#104=EDGE_LOOP('',(#122));
#105=EDGE_LOOP('',(#123));
#106=EDGE_LOOP('',(#124));
#107=EDGE_LOOP('',(#125));
#108=EDGE_LOOP('',(#126));
#109=EDGE_LOOP('',(#127));
#110=EDGE_LOOP('',(#128));
#111=EDGE_LOOP('',(#129));
#112=ORIENTED_EDGE('',*,*,#139,.T.);
#113=ORIENTED_EDGE('',*,*,#140,.F.);
#114=ORIENTED_EDGE('',*,*,#141,.F.);
#115=ORIENTED_EDGE('',*,*,#142,.F.);
#116=ORIENTED_EDGE('',*,*,#141,.T.);
#117=ORIENTED_EDGE('',*,*,#139,.F.);
#118=ORIENTED_EDGE('',*,*,#142,.T.);
#119=ORIENTED_EDGE('',*,*,#143,.F.);
#120=ORIENTED_EDGE('',*,*,#144,.T.);
#121=ORIENTED_EDGE('',*,*,#144,.F.);
#122=ORIENTED_EDGE('',*,*,#140,.T.);
#123=ORIENTED_EDGE('',*,*,#143,.T.);
#124=ORIENTED_EDGE('',*,*,#145,.F.);
#125=ORIENTED_EDGE('',*,*,#146,.T.);
#126=ORIENTED_EDGE('',*,*,#146,.F.);
#127=ORIENTED_EDGE('',*,*,#147,.T.);
#128=ORIENTED_EDGE('',*,*,#147,.F.);
#129=ORIENTED_EDGE('',*,*,#145,.T.);
#130=VERTEX_POINT('',#302);
#131=VERTEX_POINT('',#304);
#132=VERTEX_POINT('',#307);
#133=VERTEX_POINT('',#310);
#134=VERTEX_POINT('',#314);
#135=VERTEX_POINT('',#316);
#136=VERTEX_POINT('',#321);
#137=VERTEX_POINT('',#323);
#138=VERTEX_POINT('',#332);
#139=EDGE_CURVE('NONE',#130,#130,#148,.T.);
#140=EDGE_CURVE('NONE',#131,#131,#149,.T.);
#141=EDGE_CURVE('NONE',#132,#132,#150,.T.);
#142=EDGE_CURVE('NONE',#133,#133,#151,.T.);
#143=EDGE_CURVE('NONE',#134,#134,#152,.T.);
#144=EDGE_CURVE('',#135,#135,#153,.T.);
#145=EDGE_CURVE('',#136,#136,#154,.T.);
#146=EDGE_CURVE('',#137,#137,#155,.T.);
#147=EDGE_CURVE('',#138,#138,#40,.T.);
#148=CIRCLE('',#203,5.);
#149=CIRCLE('',#204,3.7435);
#150=CIRCLE('',#206,4.6);
#151=CIRCLE('',#208,5.);
#152=CIRCLE('',#211,3.99349999999999);
#153=CIRCLE('',#212,3.7435);
#154=CIRCLE('',#216,3.995);
#155=CIRCLE('',#217,3.995);
#156=CURVE_STYLE('',#161,POSITIVE_LENGTH_MEASURE(0.7),#160);
#157=CURVE_STYLE('',#162,POSITIVE_LENGTH_MEASURE(0.7),#195);
#158=CURVE_STYLE('',#163,POSITIVE_LENGTH_MEASURE(0.7),#195);
#159=CURVE_STYLE('',#164,POSITIVE_LENGTH_MEASURE(0.7),#195);
#160=DRAUGHTING_PRE_DEFINED_COLOUR('blue');
#161=DRAUGHTING_PRE_DEFINED_CURVE_FONT('continuous');
#162=DRAUGHTING_PRE_DEFINED_CURVE_FONT('continuous');
#163=DRAUGHTING_PRE_DEFINED_CURVE_FONT('continuous');
#164=DRAUGHTING_PRE_DEFINED_CURVE_FONT('continuous');
#165=B_SPLINE_CURVE_WITH_KNOTS('CUTTING PART LINE',5,(#272,#273,#274,#275,
#276,#277,#278,#279,#280,#281,#282,#283,#284,#285,#286,#287,#288,#289,#290,
#291,#292,#293,#294,#295,#296,#297),.UNSPECIFIED.,.T.,.F.,(6,5,5,5,5,6),
(0.,0.100631785428927,0.49115615751086,0.508841358037715,0.596969069613751,
1.),.UNSPECIFIED.);
#166=PRESENTATION_LAYER_ASSIGNMENT('1','Layer 1',(#268,#269,#270,#271,#165,
#200,#201,#202,#51,#52));
#167=STYLED_ITEM('',(#177),#268);
#168=STYLED_ITEM('',(#178),#269);
#169=STYLED_ITEM('',(#179),#270);
#170=STYLED_ITEM('',(#180),#271);
#171=STYLED_ITEM('',(#181),#165);
#172=STYLED_ITEM('',(#182),#200);
#173=STYLED_ITEM('',(#183),#201);
#174=STYLED_ITEM('',(#184),#202);
#175=STYLED_ITEM('',(#185),#51);
#176=STYLED_ITEM('',(#186),#52);
#177=PRESENTATION_STYLE_ASSIGNMENT((#187));
#178=PRESENTATION_STYLE_ASSIGNMENT((#188));
#179=PRESENTATION_STYLE_ASSIGNMENT((#189));
#180=PRESENTATION_STYLE_ASSIGNMENT((#190));
#181=PRESENTATION_STYLE_ASSIGNMENT((#156));
#182=PRESENTATION_STYLE_ASSIGNMENT((#157));
#183=PRESENTATION_STYLE_ASSIGNMENT((#158));
#184=PRESENTATION_STYLE_ASSIGNMENT((#159));
#185=PRESENTATION_STYLE_ASSIGNMENT((#41));
#186=PRESENTATION_STYLE_ASSIGNMENT((#42));
#187=POINT_STYLE('',#191,POSITIVE_LENGTH_MEASURE(3.),#195);
#188=POINT_STYLE('',#192,POSITIVE_LENGTH_MEASURE(3.),#195);
#189=POINT_STYLE('',#193,POSITIVE_LENGTH_MEASURE(3.),#195);
#190=POINT_STYLE('',#194,POSITIVE_LENGTH_MEASURE(3.),#196);
#191=PRE_DEFINED_POINT_MARKER_SYMBOL('plus');
#192=PRE_DEFINED_POINT_MARKER_SYMBOL('plus');
#193=PRE_DEFINED_POINT_MARKER_SYMBOL('plus');
#194=PRE_DEFINED_POINT_MARKER_SYMBOL('plus');
#195=COLOUR_RGB('Medium Maroon',0.6,0.4,0.4);
#196=COLOUR_RGB('Medium Royal',0.2,0.4,0.8);
#197=COLOUR_RGB('medium gray',0.501960784313725,0.501960784313725,0.501960784313725);
#198=COLOUR_RGB('light gray',0.8,0.8,0.8);
#199=AXIS2_PLACEMENT_3D('',#267,#221,#222);
#200=AXIS2_PLACEMENT_3D('PCS',#298,#223,#224);
#201=AXIS2_PLACEMENT_3D('CIP',#299,#225,#226);
#202=AXIS2_PLACEMENT_3D('MCS',#300,#227,#228);
#203=AXIS2_PLACEMENT_3D('',#301,#229,#230);
#204=AXIS2_PLACEMENT_3D('',#303,#231,#232);
#205=AXIS2_PLACEMENT_3D('',#305,#233,#234);
#206=AXIS2_PLACEMENT_3D('',#306,#235,#236);
#207=AXIS2_PLACEMENT_3D('',#308,#237,#238);
#208=AXIS2_PLACEMENT_3D('',#309,#239,#240);
#209=AXIS2_PLACEMENT_3D('',#311,#241,#242);
#210=AXIS2_PLACEMENT_3D('',#312,#243,#244);
#211=AXIS2_PLACEMENT_3D('',#313,#245,#246);
#212=AXIS2_PLACEMENT_3D('',#315,#247,#248);
#213=AXIS2_PLACEMENT_3D('',#317,#249,#250);
#214=AXIS2_PLACEMENT_3D('',#318,#251,#252);
#215=AXIS2_PLACEMENT_3D('',#319,#253,#254);
#216=AXIS2_PLACEMENT_3D('',#320,#255,#256);
#217=AXIS2_PLACEMENT_3D('',#322,#257,#258);
#218=AXIS2_PLACEMENT_3D('',#324,#259,#260);
#219=AXIS2_PLACEMENT_3D('',#335,#263,#264);
#220=AXIS2_PLACEMENT_3D('',#336,#265,#266);
#221=DIRECTION('',(0.,0.,1.));
#222=DIRECTION('',(1.,0.,0.));
#223=DIRECTION('',(0.,0.,1.));
#224=DIRECTION('',(1.,0.,0.));
#225=DIRECTION('',(0.,0.,1.));
#226=DIRECTION('',(1.,0.,0.));
#227=DIRECTION('',(0.,0.,1.));
#228=DIRECTION('',(1.,0.,0.));
#229=DIRECTION('',(0.,0.,-1.));
#230=DIRECTION('',(-1.,0.,0.));
#231=DIRECTION('',(0.,0.,-1.));
#232=DIRECTION('',(-1.,0.,0.));
#233=DIRECTION('',(0.,0.,1.));
#234=DIRECTION('',(1.,0.,-8.20200225048139E-17));
#235=DIRECTION('',(0.,0.,-1.));
#236=DIRECTION('',(-1.,0.,0.));
#237=DIRECTION('',(0.,0.,1.));
#238=DIRECTION('',(1.,0.,0.));
#239=DIRECTION('',(0.,0.,-1.));
#240=DIRECTION('',(-1.,0.,0.));
#241=DIRECTION('',(0.,0.,-1.));
#242=DIRECTION('',(-1.,0.,4.14262322621324E-17));
#243=DIRECTION('',(0.,0.,-1.));
#244=DIRECTION('',(-1.,0.,0.));
#245=DIRECTION('',(0.,0.,-1.));
#246=DIRECTION('',(-1.,0.,0.));
#247=DIRECTION('',(0.,0.,-1.));
#248=DIRECTION('',(-1.,0.,0.));
#249=DIRECTION('',(0.,0.,-1.));
#250=DIRECTION('',(-1.,0.,-1.5413728839079E-16));
#251=DIRECTION('',(0.,0.,-1.));
#252=DIRECTION('',(-1.,0.,0.));
#253=DIRECTION('',(0.,0.,-1.));
#254=DIRECTION('',(-1.,0.,0.));
#255=DIRECTION('',(0.,0.,1.));
#256=DIRECTION('',(1.,0.,0.));
#257=DIRECTION('',(0.,0.,1.));
#258=DIRECTION('',(1.,0.,0.));
#259=DIRECTION('',(0.,0.,-1.));
#260=DIRECTION('',(-1.,0.,0.));
#261=DIRECTION('',(0.706621627149352,-0.0370324702722645,-0.706621873557801));
#262=DIRECTION('',(0.,0.,1.));
#263=DIRECTION('',(0.,0.,1.));
#264=DIRECTION('',(1.,0.,0.));
#265=DIRECTION('',(0.,0.,1.));
#266=DIRECTION('',(1.,0.,0.));
#267=CARTESIAN_POINT('',(0.,0.,0.));
#268=CARTESIAN_POINT('',(0.,0.,0.));
#269=CARTESIAN_POINT('',(0.,0.,-75.));
#270=CARTESIAN_POINT('',(0.,0.,-32.));
#271=CARTESIAN_POINT('CRP',(-3.995,0.,-75.));
#272=CARTESIAN_POINT('',(0.,0.,-59.));
#273=CARTESIAN_POINT('',(-0.799,0.,-59.));
#274=CARTESIAN_POINT('',(-1.598,0.,-59.));
#275=CARTESIAN_POINT('',(-2.397,0.,-59.));
#276=CARTESIAN_POINT('',(-3.196,0.,-59.));
#277=CARTESIAN_POINT('',(-3.995,0.,-59.));
#278=CARTESIAN_POINT('',(-3.995,0.,-62.1006999623191));
#279=CARTESIAN_POINT('',(-3.995,0.,-65.2013999246383));
#280=CARTESIAN_POINT('',(-3.995,0.,-68.3020998869574));
#281=CARTESIAN_POINT('',(-3.995,0.,-71.4027998492766));
#282=CARTESIAN_POINT('',(-3.995,4.30650079229807E-16,-74.5034998115957));
#283=CARTESIAN_POINT('',(-3.89570985526312,8.61300158459615E-16,-74.602790161666));
#284=CARTESIAN_POINT('',(-3.7964239519572,8.61300158459615E-16,-74.7020847531664));
#285=CARTESIAN_POINT('',(-3.69714281986413,-3.82858892158944E-16,-74.8013841149432));
#286=CARTESIAN_POINT('',(-3.5978671112908,-3.82858892158944E-16,-74.9006888986038));
#287=CARTESIAN_POINT('',(-3.49859808267739,-1.91429446079472E-16,-75.));
#288=CARTESIAN_POINT('',(-2.79887875379155,0.,-75.));
#289=CARTESIAN_POINT('',(-2.09915906534366,0.,-75.));
#290=CARTESIAN_POINT('',(-1.39943937689577,0.,-75.));
#291=CARTESIAN_POINT('',(-0.699719688447886,0.,-75.));
#292=CARTESIAN_POINT('',(0.,0.,-75.));
#293=CARTESIAN_POINT('',(0.,0.,-71.8));
#294=CARTESIAN_POINT('',(0.,0.,-68.6));
#295=CARTESIAN_POINT('',(0.,0.,-65.4));
#296=CARTESIAN_POINT('',(0.,0.,-62.2));
#297=CARTESIAN_POINT('',(0.,0.,-59.));
#298=CARTESIAN_POINT('',(0.,0.,0.));
#299=CARTESIAN_POINT('',(0.,0.,-75.));
#300=CARTESIAN_POINT('',(0.,0.,-32.));
#301=CARTESIAN_POINT('',(0.,0.,-32.));
#302=CARTESIAN_POINT('',(-5.,0.,-32.));
#303=CARTESIAN_POINT('',(0.,0.,-34.5));
#304=CARTESIAN_POINT('',(-3.7435,0.,-34.5));
#305=CARTESIAN_POINT('',(0.,0.,-32.));
#306=CARTESIAN_POINT('',(0.,0.,0.));
#307=CARTESIAN_POINT('',(-4.6,0.,0.));
#308=CARTESIAN_POINT('',(0.,0.,0.));
#309=CARTESIAN_POINT('',(0.,0.,-0.399999999999998));
#310=CARTESIAN_POINT('',(-5.,0.,-0.399999999999998));
#311=CARTESIAN_POINT('',(0.,0.,-0.399999999999998));
#312=CARTESIAN_POINT('',(0.,0.,-75.));
#313=CARTESIAN_POINT('',(0.,0.,-59.));
#314=CARTESIAN_POINT('',(2.67296787834393,2.96703302498328,-59.));
#315=CARTESIAN_POINT('',(0.,0.,-57.5821795450957));
#316=CARTESIAN_POINT('',(1.45043821791524,3.45108986061083,-57.5821795450957));
#317=CARTESIAN_POINT('',(0.,0.,-57.5821795450957));
#318=CARTESIAN_POINT('',(0.,0.,-75.));
#319=CARTESIAN_POINT('',(0.,0.0141266137560483,-59.));
#320=CARTESIAN_POINT('',(0.,0.,-59.));
#321=CARTESIAN_POINT('',(3.995,0.,-59.));
#322=CARTESIAN_POINT('',(0.,0.,-74.5034998115957));
#323=CARTESIAN_POINT('',(3.995,0.,-74.5034998115957));
#324=CARTESIAN_POINT('',(0.,0.,-75.));
#325=CARTESIAN_POINT('',(8.45059733181695E-10,-3.49859772311535,-75.));
#326=CARTESIAN_POINT('',(6.99719544707576,-3.49859772142523,-75.));
#327=CARTESIAN_POINT('',(6.99719544538564,3.49859772480547,-75.));
#328=CARTESIAN_POINT('',(-8.45058527006778E-10,3.49859772311535,-75.));
#329=CARTESIAN_POINT('',(-6.99719544707576,3.49859772142523,-75.));
#330=CARTESIAN_POINT('',(-6.99719544538564,-3.49859772480547,-75.));
#331=CARTESIAN_POINT('',(8.45059733181695E-10,-3.49859772311535,-75.));
#332=CARTESIAN_POINT('',(1.6963793972915E-9,-3.49859998676279,-75.));
#333=CARTESIAN_POINT('',(-3.99499999785155,-0.000131019560787319,-74.5034998115957));
#334=CARTESIAN_POINT('',(0.,0.,-75.));
#335=CARTESIAN_POINT('',(-6.391891785929,0.125484756234102,-75.));
#336=CARTESIAN_POINT('',(-6.391891785929,0.125484756234102,-59.));
#337=MECHANICAL_DESIGN_GEOMETRIC_PRESENTATION_REPRESENTATION('',(#167,#168,
#169,#170,#171,#172,#173,#174,#175,#176),#338);
#338=(
GEOMETRIC_REPRESENTATION_CONTEXT(3)
GLOBAL_UNCERTAINTY_ASSIGNED_CONTEXT((#339))
GLOBAL_UNIT_ASSIGNED_CONTEXT((#345,#341,#340))
REPRESENTATION_CONTEXT('N5BS-7','TOP_LEVEL_ASSEMBLY_PART')
);
#339=UNCERTAINTY_MEASURE_WITH_UNIT(LENGTH_MEASURE(0.0508),#345,
'DISTANCE_ACCURACY_VALUE','Maximum Tolerance applied to model');
#340=(
NAMED_UNIT(*)
SI_UNIT($,.STERADIAN.)
SOLID_ANGLE_UNIT()
);
#341=(
CONVERSION_BASED_UNIT('DEGREE',#343)
NAMED_UNIT(#342)
PLANE_ANGLE_UNIT()
);
#342=DIMENSIONAL_EXPONENTS(0.,0.,0.,0.,0.,0.,0.);
#343=PLANE_ANGLE_MEASURE_WITH_UNIT(PLANE_ANGLE_MEASURE(0.0174532925),#344);
#344=(
NAMED_UNIT(*)
PLANE_ANGLE_UNIT()
SI_UNIT($,.RADIAN.)
);
#345=(
LENGTH_UNIT()
NAMED_UNIT(*)
SI_UNIT(.MILLI.,.METRE.)
);
ENDSEC;
END-ISO-10303-21;
