ISO-10303-21;
HEADER;
/* Generated by software containing ST-Developer
 * from STEP Tools, Inc. (www.steptools.com) 
 */
/* OPTION: using custom schema-name function */

FILE_DESCRIPTION(
/* description */ (''),
/* implementation_level */ '2;1');

FILE_NAME(
/* name */ 'N5TS-6.01H7-EB45_Detailed.stp',
/* time_stamp */ '2024-09-06T14:38:57+05:00',
/* author */ (''),
/* organization */ (''),
/* preprocessor_version */ 'ST-DEVELOPER v18.102',
/* originating_system */ 'SIEMENS PLM Software NX2206.8101',
/* authorisation */ '');

FILE_SCHEMA (('AUTOMOTIVE_DESIGN { 1 0 10303 214 3 1 1 1 }'));
ENDSEC;

DATA;
#10=CONSTRUCTIVE_GEOMETRY_REPRESENTATION_RELATIONSHIP(
'supplemental geometry','',#34,#11);
#11=CONSTRUCTIVE_GEOMETRY_REPRESENTATION('supplemental geometry',(#197,
#198,#199),#312);
#12=GEOMETRICALLY_BOUNDED_WIREFRAME_SHAPE_REPRESENTATION(
'N5TS-6.01H7-EB45,RX2000_step_objects-None',(#35),#312);
#13=PROPERTY_DEFINITION_REPRESENTATION(#17,#15);
#14=PROPERTY_DEFINITION_REPRESENTATION(#18,#16);
#15=REPRESENTATION('',(#19),#312);
#16=REPRESENTATION('',(#20),#312);
#17=PROPERTY_DEFINITION('pmi validation property','',#25);
#18=PROPERTY_DEFINITION('pmi validation property','',#25);
#19=VALUE_REPRESENTATION_ITEM('number of annotations',COUNT_MEASURE(0.));
#20=VALUE_REPRESENTATION_ITEM('number of views',COUNT_MEASURE(0.));
#21=SHAPE_REPRESENTATION_RELATIONSHIP('None',
'relationship between N5TS-6.01H7-EB45,RX2000_step_objects-None and N5
TS-6.01H7-EB45,RX2000_step_objects-None',#34,#23);
#22=SHAPE_REPRESENTATION_RELATIONSHIP('None',
'relationship between N5TS-6.01H7-EB45,RX2000_step_objects-None and N5
TS-6.01H7-EB45,RX2000_step_objects-None',#34,#12);
#23=ADVANCED_BREP_SHAPE_REPRESENTATION(
'N5TS-6.01H7-EB45,RX2000_step_objects-None',(#46,#47),#312);
#24=SHAPE_DEFINITION_REPRESENTATION(#25,#34);
#25=PRODUCT_DEFINITION_SHAPE('','',#26);
#26=PRODUCT_DEFINITION(' ','',#28,#27);
#27=PRODUCT_DEFINITION_CONTEXT('part definition',#33,'design');
#28=PRODUCT_DEFINITION_FORMATION_WITH_SPECIFIED_SOURCE(' ',' ',#30,
 .NOT_KNOWN.);
#29=PRODUCT_RELATED_PRODUCT_CATEGORY('part','',(#30));
#30=PRODUCT('N5TS-6.01H7-EB45,RX2000_step_objects',
'N5TS-6.01H7-EB45,RX2000_step_objects',' ',(#31));
#31=PRODUCT_CONTEXT(' ',#33,'mechanical');
#32=APPLICATION_PROTOCOL_DEFINITION('international standard',
'automotive_design',2010,#33);
#33=APPLICATION_CONTEXT(
'core data for automotive mechanical design processes');
#34=SHAPE_REPRESENTATION('N5TS-6.01H7-EB45,RX2000_step_objects-None',(#196),
#312);
#35=GEOMETRIC_CURVE_SET('None',(#269,#270,#271,#272,#162));
#36=SURFACE_STYLE_USAGE(.BOTH.,#38);
#37=SURFACE_STYLE_USAGE(.BOTH.,#39);
#38=SURFACE_SIDE_STYLE('',(#40));
#39=SURFACE_SIDE_STYLE('',(#41));
#40=SURFACE_STYLE_FILL_AREA(#42);
#41=SURFACE_STYLE_FILL_AREA(#43);
#42=FILL_AREA_STYLE('',(#44));
#43=FILL_AREA_STYLE('',(#45));
#44=FILL_AREA_STYLE_COLOUR('',#194);
#45=FILL_AREA_STYLE_COLOUR('',#195);
#46=MANIFOLD_SOLID_BREP('NOCUT',#48);
#47=MANIFOLD_SOLID_BREP('CUT',#49);
#48=CLOSED_SHELL('',(#71,#72,#73,#74,#75,#76,#77));
#49=CLOSED_SHELL('',(#78,#79,#80,#81));
#50=CYLINDRICAL_SURFACE('',#206,2.879);
#51=CYLINDRICAL_SURFACE('',#209,4.);
#52=CYLINDRICAL_SURFACE('',#218,3.005);
#53=CONICAL_SURFACE('',#204,2.879,10.0000000000001);
#54=CONICAL_SURFACE('',#210,4.,45.0000000000001);
#55=CONICAL_SURFACE('',#211,4.,24.1514641408193);
#56=CONICAL_SURFACE('',#216,2.50899998246566,44.9999900100977);
#57=FACE_BOUND('',#91,.T.);
#58=FACE_BOUND('',#92,.T.);
#59=FACE_BOUND('',#93,.T.);
#60=FACE_BOUND('',#94,.T.);
#61=FACE_BOUND('',#95,.T.);
#62=FACE_BOUND('',#96,.T.);
#63=FACE_BOUND('',#97,.T.);
#64=FACE_BOUND('',#98,.T.);
#65=FACE_BOUND('',#99,.T.);
#66=FACE_BOUND('',#100,.T.);
#67=FACE_BOUND('',#103,.T.);
#68=FACE_BOUND('',#104,.T.);
#69=FACE_BOUND('',#105,.T.);
#70=FACE_BOUND('',#106,.T.);
#71=ADVANCED_FACE('NONE',(#86),#82,.T.);
#72=ADVANCED_FACE('NONE',(#57,#58),#53,.T.);
#73=ADVANCED_FACE('NONE',(#59,#60),#50,.T.);
#74=ADVANCED_FACE('NONE',(#61,#62),#51,.T.);
#75=ADVANCED_FACE('NONE',(#63,#64),#54,.T.);
#76=ADVANCED_FACE('NONE',(#65,#66),#55,.T.);
#77=ADVANCED_FACE('',(#87),#83,.T.);
#78=ADVANCED_FACE('',(#88),#84,.F.);
#79=ADVANCED_FACE('',(#67,#68),#56,.T.);
#80=ADVANCED_FACE('',(#69,#70),#52,.T.);
#81=ADVANCED_FACE('',(#89),#85,.F.);
#82=PLANE('',#201);
#83=PLANE('',#212);
#84=PLANE('',#214);
#85=PLANE('',#219);
#86=FACE_OUTER_BOUND('',#90,.T.);
#87=FACE_OUTER_BOUND('',#101,.T.);
#88=FACE_OUTER_BOUND('',#102,.T.);
#89=FACE_OUTER_BOUND('',#107,.T.);
#90=EDGE_LOOP('',(#108));
#91=EDGE_LOOP('',(#109));
#92=EDGE_LOOP('',(#110));
#93=EDGE_LOOP('',(#111));
#94=EDGE_LOOP('',(#112));
#95=EDGE_LOOP('',(#113));
#96=EDGE_LOOP('',(#114));
#97=EDGE_LOOP('',(#115));
#98=EDGE_LOOP('',(#116));
#99=EDGE_LOOP('',(#117));
#100=EDGE_LOOP('',(#118));
#101=EDGE_LOOP('',(#119));
#102=EDGE_LOOP('',(#120));
#103=EDGE_LOOP('',(#121));
#104=EDGE_LOOP('',(#122));
#105=EDGE_LOOP('',(#123));
#106=EDGE_LOOP('',(#124));
#107=EDGE_LOOP('',(#125));
#108=ORIENTED_EDGE('',*,*,#135,.F.);
#109=ORIENTED_EDGE('',*,*,#136,.T.);
#110=ORIENTED_EDGE('',*,*,#137,.T.);
#111=ORIENTED_EDGE('',*,*,#136,.F.);
#112=ORIENTED_EDGE('',*,*,#138,.T.);
#113=ORIENTED_EDGE('',*,*,#139,.F.);
#114=ORIENTED_EDGE('',*,*,#140,.T.);
#115=ORIENTED_EDGE('',*,*,#140,.F.);
#116=ORIENTED_EDGE('',*,*,#135,.T.);
#117=ORIENTED_EDGE('',*,*,#139,.T.);
#118=ORIENTED_EDGE('',*,*,#138,.F.);
#119=ORIENTED_EDGE('',*,*,#137,.F.);
#120=ORIENTED_EDGE('',*,*,#141,.F.);
#121=ORIENTED_EDGE('',*,*,#142,.F.);
#122=ORIENTED_EDGE('',*,*,#141,.T.);
#123=ORIENTED_EDGE('',*,*,#142,.T.);
#124=ORIENTED_EDGE('',*,*,#143,.F.);
#125=ORIENTED_EDGE('',*,*,#143,.T.);
#126=VERTEX_POINT('',#283);
#127=VERTEX_POINT('',#286);
#128=VERTEX_POINT('',#288);
#129=VERTEX_POINT('',#291);
#130=VERTEX_POINT('',#294);
#131=VERTEX_POINT('',#296);
#132=VERTEX_POINT('',#302);
#133=VERTEX_POINT('',#305);
#134=VERTEX_POINT('',#308);
#135=EDGE_CURVE('NONE',#126,#126,#144,.T.);
#136=EDGE_CURVE('',#127,#127,#145,.T.);
#137=EDGE_CURVE('NONE',#128,#128,#146,.T.);
#138=EDGE_CURVE('NONE',#129,#129,#147,.T.);
#139=EDGE_CURVE('NONE',#130,#130,#148,.T.);
#140=EDGE_CURVE('NONE',#131,#131,#149,.T.);
#141=EDGE_CURVE('',#132,#132,#150,.T.);
#142=EDGE_CURVE('',#133,#133,#151,.T.);
#143=EDGE_CURVE('',#134,#134,#152,.T.);
#144=CIRCLE('',#200,3.6);
#145=CIRCLE('',#202,2.879);
#146=CIRCLE('',#203,3.00400000000001);
#147=CIRCLE('',#205,2.879);
#148=CIRCLE('',#207,4.);
#149=CIRCLE('',#208,4.);
#150=CIRCLE('',#213,2.50899998246566);
#151=CIRCLE('',#215,3.005);
#152=CIRCLE('',#217,3.005);
#153=CURVE_STYLE('',#158,POSITIVE_LENGTH_MEASURE(0.7),#157);
#154=CURVE_STYLE('',#159,POSITIVE_LENGTH_MEASURE(0.7),#192);
#155=CURVE_STYLE('',#160,POSITIVE_LENGTH_MEASURE(0.7),#192);
#156=CURVE_STYLE('',#161,POSITIVE_LENGTH_MEASURE(0.7),#192);
#157=DRAUGHTING_PRE_DEFINED_COLOUR('blue');
#158=DRAUGHTING_PRE_DEFINED_CURVE_FONT('continuous');
#159=DRAUGHTING_PRE_DEFINED_CURVE_FONT('continuous');
#160=DRAUGHTING_PRE_DEFINED_CURVE_FONT('continuous');
#161=DRAUGHTING_PRE_DEFINED_CURVE_FONT('continuous');
#162=B_SPLINE_CURVE_WITH_KNOTS('CUTTING PART LINE',1,(#273,#274,#275,#276,
#277,#278),.UNSPECIFIED.,.T.,.F.,(2,1,1,1,1,2),(0.,0.424184341417172,0.490701747989465,
0.509298256594376,0.92033287837974,1.),.UNSPECIFIED.);
#163=PRESENTATION_LAYER_ASSIGNMENT('1','Layer 1',(#269,#270,#271,#272,#162,
#197,#198,#199,#46,#47));
#164=STYLED_ITEM('',(#174),#269);
#165=STYLED_ITEM('',(#175),#270);
#166=STYLED_ITEM('',(#176),#271);
#167=STYLED_ITEM('',(#177),#272);
#168=STYLED_ITEM('',(#178),#162);
#169=STYLED_ITEM('',(#179),#197);
#170=STYLED_ITEM('',(#180),#198);
#171=STYLED_ITEM('',(#181),#199);
#172=STYLED_ITEM('',(#182),#46);
#173=STYLED_ITEM('',(#183),#47);
#174=PRESENTATION_STYLE_ASSIGNMENT((#184));
#175=PRESENTATION_STYLE_ASSIGNMENT((#185));
#176=PRESENTATION_STYLE_ASSIGNMENT((#186));
#177=PRESENTATION_STYLE_ASSIGNMENT((#187));
#178=PRESENTATION_STYLE_ASSIGNMENT((#153));
#179=PRESENTATION_STYLE_ASSIGNMENT((#154));
#180=PRESENTATION_STYLE_ASSIGNMENT((#155));
#181=PRESENTATION_STYLE_ASSIGNMENT((#156));
#182=PRESENTATION_STYLE_ASSIGNMENT((#36));
#183=PRESENTATION_STYLE_ASSIGNMENT((#37));
#184=POINT_STYLE('',#188,POSITIVE_LENGTH_MEASURE(3.),#192);
#185=POINT_STYLE('',#189,POSITIVE_LENGTH_MEASURE(3.),#192);
#186=POINT_STYLE('',#190,POSITIVE_LENGTH_MEASURE(3.),#192);
#187=POINT_STYLE('',#191,POSITIVE_LENGTH_MEASURE(3.),#193);
#188=PRE_DEFINED_POINT_MARKER_SYMBOL('plus');
#189=PRE_DEFINED_POINT_MARKER_SYMBOL('plus');
#190=PRE_DEFINED_POINT_MARKER_SYMBOL('plus');
#191=PRE_DEFINED_POINT_MARKER_SYMBOL('plus');
#192=COLOUR_RGB('Medium Maroon',0.6,0.4,0.4);
#193=COLOUR_RGB('Medium Royal',0.2,0.4,0.8);
#194=COLOUR_RGB('medium gray',0.501960784313725,0.501960784313725,0.501960784313725);
#195=COLOUR_RGB('light gray',0.8,0.8,0.8);
#196=AXIS2_PLACEMENT_3D('',#268,#220,#221);
#197=AXIS2_PLACEMENT_3D('PCS',#279,#222,#223);
#198=AXIS2_PLACEMENT_3D('MCS',#280,#224,#225);
#199=AXIS2_PLACEMENT_3D('CIP',#281,#226,#227);
#200=AXIS2_PLACEMENT_3D('',#282,#228,#229);
#201=AXIS2_PLACEMENT_3D('',#284,#230,#231);
#202=AXIS2_PLACEMENT_3D('',#285,#232,#233);
#203=AXIS2_PLACEMENT_3D('',#287,#234,#235);
#204=AXIS2_PLACEMENT_3D('',#289,#236,#237);
#205=AXIS2_PLACEMENT_3D('',#290,#238,#239);
#206=AXIS2_PLACEMENT_3D('',#292,#240,#241);
#207=AXIS2_PLACEMENT_3D('',#293,#242,#243);
#208=AXIS2_PLACEMENT_3D('',#295,#244,#245);
#209=AXIS2_PLACEMENT_3D('',#297,#246,#247);
#210=AXIS2_PLACEMENT_3D('',#298,#248,#249);
#211=AXIS2_PLACEMENT_3D('',#299,#250,#251);
#212=AXIS2_PLACEMENT_3D('',#300,#252,#253);
#213=AXIS2_PLACEMENT_3D('',#301,#254,#255);
#214=AXIS2_PLACEMENT_3D('',#303,#256,#257);
#215=AXIS2_PLACEMENT_3D('',#304,#258,#259);
#216=AXIS2_PLACEMENT_3D('',#306,#260,#261);
#217=AXIS2_PLACEMENT_3D('',#307,#262,#263);
#218=AXIS2_PLACEMENT_3D('',#309,#264,#265);
#219=AXIS2_PLACEMENT_3D('',#310,#266,#267);
#220=DIRECTION('',(0.,0.,1.));
#221=DIRECTION('',(1.,0.,0.));
#222=DIRECTION('',(0.,0.,1.));
#223=DIRECTION('',(1.,0.,0.));
#224=DIRECTION('',(0.,0.,1.));
#225=DIRECTION('',(1.,0.,0.));
#226=DIRECTION('',(0.,0.,1.));
#227=DIRECTION('',(1.,0.,0.));
#228=DIRECTION('',(0.,0.,-1.));
#229=DIRECTION('',(-1.,0.,0.));
#230=DIRECTION('',(0.,0.,1.));
#231=DIRECTION('',(1.,0.,0.));
#232=DIRECTION('',(0.,0.,-1.));
#233=DIRECTION('',(-1.,0.,0.));
#234=DIRECTION('',(0.,0.,1.));
#235=DIRECTION('',(-1.,0.,0.));
#236=DIRECTION('',(0.,0.,-1.));
#237=DIRECTION('',(-1.,0.,3.09761711142687E-16));
#238=DIRECTION('',(0.,0.,-1.));
#239=DIRECTION('',(-1.,0.,0.));
#240=DIRECTION('',(0.,0.,-1.));
#241=DIRECTION('',(-1.,0.,0.));
#242=DIRECTION('',(0.,0.,-1.));
#243=DIRECTION('',(-1.,0.,0.));
#244=DIRECTION('',(0.,0.,-1.));
#245=DIRECTION('',(-1.,0.,0.));
#246=DIRECTION('',(0.,0.,-1.));
#247=DIRECTION('',(-1.,0.,0.));
#248=DIRECTION('',(0.,0.,-1.));
#249=DIRECTION('',(-1.,0.,4.14674934496446E-17));
#250=DIRECTION('',(0.,0.,1.));
#251=DIRECTION('',(1.,0.,-9.20277706088499E-17));
#252=DIRECTION('',(0.,0.,-1.));
#253=DIRECTION('',(-1.,0.,0.));
#254=DIRECTION('',(0.,0.,1.));
#255=DIRECTION('',(1.,0.,0.));
#256=DIRECTION('',(0.,0.,1.));
#257=DIRECTION('',(1.,0.,0.));
#258=DIRECTION('',(0.,0.,1.));
#259=DIRECTION('',(1.,0.,0.));
#260=DIRECTION('',(0.,0.,1.));
#261=DIRECTION('',(1.,0.,5.53722415871245E-17));
#262=DIRECTION('',(0.,0.,1.));
#263=DIRECTION('',(-1.,0.,0.));
#264=DIRECTION('',(0.,0.,1.));
#265=DIRECTION('',(1.,0.,0.));
#266=DIRECTION('',(0.,0.,-1.));
#267=DIRECTION('',(-1.,0.,0.));
#268=CARTESIAN_POINT('',(0.,0.,0.));
#269=CARTESIAN_POINT('',(0.,0.,0.));
#270=CARTESIAN_POINT('',(0.,0.,-32.));
#271=CARTESIAN_POINT('',(0.,0.,-65.));
#272=CARTESIAN_POINT('CRP',(-3.005,0.,-65.));
#273=CARTESIAN_POINT('',(0.,0.,-49.));
#274=CARTESIAN_POINT('',(0.,0.,-65.));
#275=CARTESIAN_POINT('',(-2.50899998246566,0.,-65.));
#276=CARTESIAN_POINT('',(-3.005,0.,-64.5039998095038));
#277=CARTESIAN_POINT('',(-3.005,0.,-49.));
#278=CARTESIAN_POINT('',(0.,0.,-49.));
#279=CARTESIAN_POINT('',(0.,0.,0.));
#280=CARTESIAN_POINT('',(0.,0.,-32.));
#281=CARTESIAN_POINT('',(0.,0.,-65.));
#282=CARTESIAN_POINT('',(0.,0.,0.));
#283=CARTESIAN_POINT('',(-3.6,0.,0.));
#284=CARTESIAN_POINT('',(0.,0.,0.));
#285=CARTESIAN_POINT('',(0.,0.,-48.2910897725478));
#286=CARTESIAN_POINT('',(-1.77781225600162,2.26451420450622,-48.2910897725478));
#287=CARTESIAN_POINT('',(0.,0.,-49.));
#288=CARTESIAN_POINT('',(-3.00400000000001,0.,-49.));
#289=CARTESIAN_POINT('',(0.,0.,-48.2910897725478));
#290=CARTESIAN_POINT('',(0.,0.,-34.5));
#291=CARTESIAN_POINT('',(-2.879,0.,-34.5));
#292=CARTESIAN_POINT('',(0.,0.,-65.));
#293=CARTESIAN_POINT('',(0.,0.,-32.));
#294=CARTESIAN_POINT('',(-4.,0.,-32.));
#295=CARTESIAN_POINT('',(0.,0.,-0.399999999999998));
#296=CARTESIAN_POINT('',(-4.,0.,-0.399999999999998));
#297=CARTESIAN_POINT('',(0.,0.,-65.));
#298=CARTESIAN_POINT('',(0.,0.,-0.399999999999998));
#299=CARTESIAN_POINT('',(0.,0.,-32.));
#300=CARTESIAN_POINT('',(0.,0.0174259258298917,-49.));
#301=CARTESIAN_POINT('',(0.,0.,-65.));
#302=CARTESIAN_POINT('',(2.50899998246566,0.,-65.));
#303=CARTESIAN_POINT('',(0.,0.,-65.));
#304=CARTESIAN_POINT('',(0.,0.,-64.5039998095038));
#305=CARTESIAN_POINT('',(3.005,0.,-64.5039998095038));
#306=CARTESIAN_POINT('',(0.,0.,-65.));
#307=CARTESIAN_POINT('',(0.,0.,-49.));
#308=CARTESIAN_POINT('',(-3.005,0.,-49.));
#309=CARTESIAN_POINT('',(0.,0.,-32.));
#310=CARTESIAN_POINT('',(3.00787528112478,0.,-49.));
#311=MECHANICAL_DESIGN_GEOMETRIC_PRESENTATION_REPRESENTATION('',(#164,#165,
#166,#167,#168,#169,#170,#171,#172,#173),#312);
#312=(
GEOMETRIC_REPRESENTATION_CONTEXT(3)
GLOBAL_UNCERTAINTY_ASSIGNED_CONTEXT((#313))
GLOBAL_UNIT_ASSIGNED_CONTEXT((#319,#315,#314))
REPRESENTATION_CONTEXT('N5TS-6','TOP_LEVEL_ASSEMBLY_PART')
);
#313=UNCERTAINTY_MEASURE_WITH_UNIT(LENGTH_MEASURE(2.E-5),#319,
'DISTANCE_ACCURACY_VALUE','Maximum Tolerance applied to model');
#314=(
NAMED_UNIT(*)
SI_UNIT($,.STERADIAN.)
SOLID_ANGLE_UNIT()
);
#315=(
CONVERSION_BASED_UNIT('DEGREE',#317)
NAMED_UNIT(#316)
PLANE_ANGLE_UNIT()
);
#316=DIMENSIONAL_EXPONENTS(0.,0.,0.,0.,0.,0.,0.);
#317=PLANE_ANGLE_MEASURE_WITH_UNIT(PLANE_ANGLE_MEASURE(0.0174532925),#318);
#318=(
NAMED_UNIT(*)
PLANE_ANGLE_UNIT()
SI_UNIT($,.RADIAN.)
);
#319=(
LENGTH_UNIT()
NAMED_UNIT(*)
SI_UNIT(.MILLI.,.METRE.)
);
ENDSEC;
END-ISO-10303-21;
