ISO-10303-21;
HEADER;
/* Generated by software containing ST-Developer
 * from STEP Tools, Inc. (www.steptools.com) 
 */
/* OPTION: using custom schema-name function */

FILE_DESCRIPTION(
/* description */ (''),
/* implementation_level */ '2;1');

FILE_NAME(
/* name */ 'N5TS-7.99H7-EB45_Detailed.stp',
/* time_stamp */ '2024-09-06T13:53:22+05:00',
/* author */ (''),
/* organization */ (''),
/* preprocessor_version */ 'ST-DEVELOPER v18.102',
/* originating_system */ 'SIEMENS PLM Software NX2206.8101',
/* authorisation */ '');

FILE_SCHEMA (('AUTOMOTIVE_DESIGN { 1 0 10303 214 3 1 1 1 }'));
ENDSEC;

DATA;
#10=CONSTRUCTIVE_GEOMETRY_REPRESENTATION_RELATIONSHIP(
'supplemental geometry','',#34,#11);
#11=CONSTRUCTIVE_GEOMETRY_REPRESENTATION('supplemental geometry',(#237,
#238,#239),#411);
#12=GEOMETRICALLY_BOUNDED_WIREFRAME_SHAPE_REPRESENTATION(
'N5TS-7.99H7-EB45,RX2000_step_objects-None',(#35),#411);
#13=PROPERTY_DEFINITION_REPRESENTATION(#17,#15);
#14=PROPERTY_DEFINITION_REPRESENTATION(#18,#16);
#15=REPRESENTATION('',(#19),#411);
#16=REPRESENTATION('',(#20),#411);
#17=PROPERTY_DEFINITION('pmi validation property','',#25);
#18=PROPERTY_DEFINITION('pmi validation property','',#25);
#19=VALUE_REPRESENTATION_ITEM('number of annotations',COUNT_MEASURE(0.));
#20=VALUE_REPRESENTATION_ITEM('number of views',COUNT_MEASURE(0.));
#21=SHAPE_REPRESENTATION_RELATIONSHIP('None',
'relationship between N5TS-7.99H7-EB45,RX2000_step_objects-None and N5
TS-7.99H7-EB45,RX2000_step_objects-None',#34,#23);
#22=SHAPE_REPRESENTATION_RELATIONSHIP('None',
'relationship between N5TS-7.99H7-EB45,RX2000_step_objects-None and N5
TS-7.99H7-EB45,RX2000_step_objects-None',#34,#12);
#23=ADVANCED_BREP_SHAPE_REPRESENTATION(
'N5TS-7.99H7-EB45,RX2000_step_objects-None',(#55,#56),#411);
#24=SHAPE_DEFINITION_REPRESENTATION(#25,#34);
#25=PRODUCT_DEFINITION_SHAPE('','',#26);
#26=PRODUCT_DEFINITION(' ','',#28,#27);
#27=PRODUCT_DEFINITION_CONTEXT('part definition',#33,'design');
#28=PRODUCT_DEFINITION_FORMATION_WITH_SPECIFIED_SOURCE(' ',' ',#30,
 .NOT_KNOWN.);
#29=PRODUCT_RELATED_PRODUCT_CATEGORY('part','',(#30));
#30=PRODUCT('N5TS-7.99H7-EB45,RX2000_step_objects',
'N5TS-7.99H7-EB45,RX2000_step_objects',' ',(#31));
#31=PRODUCT_CONTEXT(' ',#33,'mechanical');
#32=APPLICATION_PROTOCOL_DEFINITION('international standard',
'automotive_design',2010,#33);
#33=APPLICATION_CONTEXT(
'core data for automotive mechanical design processes');
#34=SHAPE_REPRESENTATION('N5TS-7.99H7-EB45,RX2000_step_objects-None',(#236),
#411);
#35=GEOMETRIC_CURVE_SET('None',(#325,#326,#327,#328,#202));
#36=(
BOUNDED_CURVE()
B_SPLINE_CURVE(3,(#399,#400,#401,#402,#403,#404,#405),.UNSPECIFIED.,.T.,
 .F.)
B_SPLINE_CURVE_WITH_KNOTS((1,3,3,3,1),(-0.5,0.,0.5,1.,1.5),
 .UNSPECIFIED.)
CURVE()
GEOMETRIC_REPRESENTATION_ITEM()
RATIONAL_B_SPLINE_CURVE((1.,0.333333333333333,0.333333333333333,1.,0.333333333333333,
0.333333333333333,1.))
REPRESENTATION_ITEM('')
);
#37=SURFACE_OF_REVOLUTION('',#41,#39);
#38=SURFACE_OF_REVOLUTION('',#42,#40);
#39=AXIS1_PLACEMENT('',#398,#319);
#40=AXIS1_PLACEMENT('',#409,#323);
#41=LINE('',#397,#43);
#42=LINE('',#408,#44);
#43=VECTOR('',#318,1.34681827947835);
#44=VECTOR('',#322,0.702639143846752);
#45=SURFACE_STYLE_USAGE(.BOTH.,#47);
#46=SURFACE_STYLE_USAGE(.BOTH.,#48);
#47=SURFACE_SIDE_STYLE('',(#49));
#48=SURFACE_SIDE_STYLE('',(#50));
#49=SURFACE_STYLE_FILL_AREA(#51);
#50=SURFACE_STYLE_FILL_AREA(#52);
#51=FILL_AREA_STYLE('',(#53));
#52=FILL_AREA_STYLE('',(#54));
#53=FILL_AREA_STYLE_COLOUR('',#234);
#54=FILL_AREA_STYLE_COLOUR('',#235);
#55=MANIFOLD_SOLID_BREP('NOCUT',#57);
#56=MANIFOLD_SOLID_BREP('CUT',#58);
#57=CLOSED_SHELL('',(#85,#86,#87,#88,#89,#90,#91,#92));
#58=CLOSED_SHELL('',(#93,#94,#95,#96,#97));
#59=CONICAL_SURFACE('',#249,3.7435,10.);
#60=CONICAL_SURFACE('',#251,3.99349999999999,0.0143239445799222);
#61=CONICAL_SURFACE('',#255,5.,45.0000000000002);
#62=CONICAL_SURFACE('',#256,5.,26.6841024136699);
#63=ELLIPSE('',#246,3.99367617337706,3.99367604434029);
#64=ELLIPSE('',#248,3.99367617337706,3.99367604434029);
#65=ELLIPSE('',#250,3.99350037473409,3.99350024959374);
#66=CYLINDRICAL_SURFACE('',#244,3.7435);
#67=CYLINDRICAL_SURFACE('',#254,5.);
#68=CYLINDRICAL_SURFACE('',#262,3.995);
#69=FACE_BOUND('',#108,.T.);
#70=FACE_BOUND('',#109,.T.);
#71=FACE_BOUND('',#110,.T.);
#72=FACE_BOUND('',#111,.T.);
#73=FACE_BOUND('',#113,.T.);
#74=FACE_BOUND('',#114,.T.);
#75=FACE_BOUND('',#115,.T.);
#76=FACE_BOUND('',#116,.T.);
#77=FACE_BOUND('',#117,.T.);
#78=FACE_BOUND('',#118,.T.);
#79=FACE_BOUND('',#121,.T.);
#80=FACE_BOUND('',#122,.T.);
#81=FACE_BOUND('',#123,.T.);
#82=FACE_BOUND('',#124,.T.);
#83=FACE_BOUND('',#126,.T.);
#84=FACE_BOUND('',#127,.T.);
#85=ADVANCED_FACE('NONE',(#102),#98,.T.);
#86=ADVANCED_FACE('NONE',(#69,#70),#66,.T.);
#87=ADVANCED_FACE('NONE',(#71,#72),#59,.T.);
#88=ADVANCED_FACE('NONE',(#103),#60,.T.);
#89=ADVANCED_FACE('NONE',(#73,#74),#67,.T.);
#90=ADVANCED_FACE('NONE',(#75,#76),#61,.T.);
#91=ADVANCED_FACE('NONE',(#77,#78),#62,.T.);
#92=ADVANCED_FACE('',(#104),#99,.F.);
#93=ADVANCED_FACE('',(#105),#100,.T.);
#94=ADVANCED_FACE('',(#79,#80),#68,.T.);
#95=ADVANCED_FACE('',(#81,#82),#37,.T.);
#96=ADVANCED_FACE('',(#106),#101,.F.);
#97=ADVANCED_FACE('',(#83,#84),#38,.F.);
#98=PLANE('',#241);
#99=PLANE('',#257);
#100=PLANE('',#259);
#101=PLANE('',#263);
#102=FACE_OUTER_BOUND('',#107,.T.);
#103=FACE_OUTER_BOUND('',#112,.T.);
#104=FACE_OUTER_BOUND('',#119,.T.);
#105=FACE_OUTER_BOUND('',#120,.T.);
#106=FACE_OUTER_BOUND('',#125,.T.);
#107=EDGE_LOOP('',(#128));
#108=EDGE_LOOP('',(#129));
#109=EDGE_LOOP('',(#130));
#110=EDGE_LOOP('',(#131));
#111=EDGE_LOOP('',(#132,#133,#134,#135));
#112=EDGE_LOOP('',(#136,#137));
#113=EDGE_LOOP('',(#138));
#114=EDGE_LOOP('',(#139));
#115=EDGE_LOOP('',(#140));
#116=EDGE_LOOP('',(#141));
#117=EDGE_LOOP('',(#142));
#118=EDGE_LOOP('',(#143));
#119=EDGE_LOOP('',(#144,#145,#146,#147));
#120=EDGE_LOOP('',(#148));
#121=EDGE_LOOP('',(#149));
#122=EDGE_LOOP('',(#150));
#123=EDGE_LOOP('',(#151));
#124=EDGE_LOOP('',(#152));
#125=EDGE_LOOP('',(#153));
#126=EDGE_LOOP('',(#154));
#127=EDGE_LOOP('',(#155));
#128=ORIENTED_EDGE('',*,*,#169,.F.);
#129=ORIENTED_EDGE('',*,*,#170,.F.);
#130=ORIENTED_EDGE('',*,*,#171,.T.);
#131=ORIENTED_EDGE('',*,*,#170,.T.);
#132=ORIENTED_EDGE('',*,*,#172,.F.);
#133=ORIENTED_EDGE('',*,*,#173,.F.);
#134=ORIENTED_EDGE('',*,*,#174,.F.);
#135=ORIENTED_EDGE('',*,*,#175,.F.);
#136=ORIENTED_EDGE('',*,*,#172,.T.);
#137=ORIENTED_EDGE('',*,*,#176,.T.);
#138=ORIENTED_EDGE('',*,*,#177,.F.);
#139=ORIENTED_EDGE('',*,*,#178,.T.);
#140=ORIENTED_EDGE('',*,*,#178,.F.);
#141=ORIENTED_EDGE('',*,*,#169,.T.);
#142=ORIENTED_EDGE('',*,*,#177,.T.);
#143=ORIENTED_EDGE('',*,*,#171,.F.);
#144=ORIENTED_EDGE('',*,*,#173,.T.);
#145=ORIENTED_EDGE('',*,*,#176,.F.);
#146=ORIENTED_EDGE('',*,*,#175,.T.);
#147=ORIENTED_EDGE('',*,*,#174,.T.);
#148=ORIENTED_EDGE('',*,*,#179,.T.);
#149=ORIENTED_EDGE('',*,*,#180,.F.);
#150=ORIENTED_EDGE('',*,*,#181,.T.);
#151=ORIENTED_EDGE('',*,*,#180,.T.);
#152=ORIENTED_EDGE('',*,*,#179,.F.);
#153=ORIENTED_EDGE('',*,*,#182,.F.);
#154=ORIENTED_EDGE('',*,*,#182,.T.);
#155=ORIENTED_EDGE('',*,*,#181,.F.);
#156=VERTEX_POINT('',#363);
#157=VERTEX_POINT('',#366);
#158=VERTEX_POINT('',#368);
#159=VERTEX_POINT('',#371);
#160=VERTEX_POINT('',#372);
#161=VERTEX_POINT('',#374);
#162=VERTEX_POINT('',#376);
#163=VERTEX_POINT('',#382);
#164=VERTEX_POINT('',#384);
#165=VERTEX_POINT('',#390);
#166=VERTEX_POINT('',#393);
#167=VERTEX_POINT('',#395);
#168=VERTEX_POINT('',#406);
#169=EDGE_CURVE('NONE',#156,#156,#183,.T.);
#170=EDGE_CURVE('NONE',#157,#157,#184,.T.);
#171=EDGE_CURVE('NONE',#158,#158,#185,.T.);
#172=EDGE_CURVE('',#159,#160,#186,.T.);
#173=EDGE_CURVE('',#161,#159,#63,.T.);
#174=EDGE_CURVE('',#162,#161,#187,.T.);
#175=EDGE_CURVE('',#160,#162,#64,.T.);
#176=EDGE_CURVE('',#160,#159,#65,.T.);
#177=EDGE_CURVE('NONE',#163,#163,#188,.T.);
#178=EDGE_CURVE('NONE',#164,#164,#189,.T.);
#179=EDGE_CURVE('',#165,#165,#190,.T.);
#180=EDGE_CURVE('',#166,#166,#191,.T.);
#181=EDGE_CURVE('',#167,#167,#192,.T.);
#182=EDGE_CURVE('',#168,#168,#36,.T.);
#183=CIRCLE('',#240,4.6);
#184=CIRCLE('',#242,3.7435);
#185=CIRCLE('',#243,3.7435);
#186=CIRCLE('',#245,3.99349999999999);
#187=CIRCLE('',#247,3.99349999999999);
#188=CIRCLE('',#252,5.);
#189=CIRCLE('',#253,5.);
#190=CIRCLE('',#258,2.65096827736228);
#191=CIRCLE('',#260,3.995);
#192=CIRCLE('',#261,3.995);
#193=CURVE_STYLE('',#198,POSITIVE_LENGTH_MEASURE(0.7),#197);
#194=CURVE_STYLE('',#199,POSITIVE_LENGTH_MEASURE(0.7),#232);
#195=CURVE_STYLE('',#200,POSITIVE_LENGTH_MEASURE(0.7),#232);
#196=CURVE_STYLE('',#201,POSITIVE_LENGTH_MEASURE(0.7),#232);
#197=DRAUGHTING_PRE_DEFINED_COLOUR('blue');
#198=DRAUGHTING_PRE_DEFINED_CURVE_FONT('continuous');
#199=DRAUGHTING_PRE_DEFINED_CURVE_FONT('continuous');
#200=DRAUGHTING_PRE_DEFINED_CURVE_FONT('continuous');
#201=DRAUGHTING_PRE_DEFINED_CURVE_FONT('continuous');
#202=B_SPLINE_CURVE_WITH_KNOTS('CUTTING PART LINE',5,(#329,#330,#331,#332,
#333,#334,#335,#336,#337,#338,#339,#340,#341,#342,#343,#344,#345,#346,#347,
#348,#349,#350,#351,#352,#353,#354,#355,#356,#357,#358),.UNSPECIFIED.,.T.,
 .F.,(6,4,5,5,5,5,6),(0.,0.0667825337236598,0.100641047774366,0.491151049247826,
0.508837877362657,0.596973795389375,1.),.UNSPECIFIED.);
#203=PRESENTATION_LAYER_ASSIGNMENT('1','Layer 1',(#325,#326,#327,#328,#202,
#237,#238,#239,#55,#56));
#204=STYLED_ITEM('',(#214),#325);
#205=STYLED_ITEM('',(#215),#326);
#206=STYLED_ITEM('',(#216),#327);
#207=STYLED_ITEM('',(#217),#328);
#208=STYLED_ITEM('',(#218),#202);
#209=STYLED_ITEM('',(#219),#237);
#210=STYLED_ITEM('',(#220),#238);
#211=STYLED_ITEM('',(#221),#239);
#212=STYLED_ITEM('',(#222),#55);
#213=STYLED_ITEM('',(#223),#56);
#214=PRESENTATION_STYLE_ASSIGNMENT((#224));
#215=PRESENTATION_STYLE_ASSIGNMENT((#225));
#216=PRESENTATION_STYLE_ASSIGNMENT((#226));
#217=PRESENTATION_STYLE_ASSIGNMENT((#227));
#218=PRESENTATION_STYLE_ASSIGNMENT((#193));
#219=PRESENTATION_STYLE_ASSIGNMENT((#194));
#220=PRESENTATION_STYLE_ASSIGNMENT((#195));
#221=PRESENTATION_STYLE_ASSIGNMENT((#196));
#222=PRESENTATION_STYLE_ASSIGNMENT((#45));
#223=PRESENTATION_STYLE_ASSIGNMENT((#46));
#224=POINT_STYLE('',#228,POSITIVE_LENGTH_MEASURE(3.),#232);
#225=POINT_STYLE('',#229,POSITIVE_LENGTH_MEASURE(3.),#232);
#226=POINT_STYLE('',#230,POSITIVE_LENGTH_MEASURE(3.),#232);
#227=POINT_STYLE('',#231,POSITIVE_LENGTH_MEASURE(3.),#233);
#228=PRE_DEFINED_POINT_MARKER_SYMBOL('plus');
#229=PRE_DEFINED_POINT_MARKER_SYMBOL('plus');
#230=PRE_DEFINED_POINT_MARKER_SYMBOL('plus');
#231=PRE_DEFINED_POINT_MARKER_SYMBOL('plus');
#232=COLOUR_RGB('Medium Maroon',0.6,0.4,0.4);
#233=COLOUR_RGB('Medium Royal',0.301960784313725,0.427450980392157,0.701960784313725);
#234=COLOUR_RGB('medium gray',0.490196078431373,0.490196078431373,0.490196078431373);
#235=COLOUR_RGB('light gray',0.8,0.8,0.8);
#236=AXIS2_PLACEMENT_3D('',#324,#264,#265);
#237=AXIS2_PLACEMENT_3D('PCS',#359,#266,#267);
#238=AXIS2_PLACEMENT_3D('MCS',#360,#268,#269);
#239=AXIS2_PLACEMENT_3D('CIP',#361,#270,#271);
#240=AXIS2_PLACEMENT_3D('',#362,#272,#273);
#241=AXIS2_PLACEMENT_3D('',#364,#274,#275);
#242=AXIS2_PLACEMENT_3D('',#365,#276,#277);
#243=AXIS2_PLACEMENT_3D('',#367,#278,#279);
#244=AXIS2_PLACEMENT_3D('',#369,#280,#281);
#245=AXIS2_PLACEMENT_3D('',#370,#282,#283);
#246=AXIS2_PLACEMENT_3D('',#373,#284,#285);
#247=AXIS2_PLACEMENT_3D('',#375,#286,#287);
#248=AXIS2_PLACEMENT_3D('',#377,#288,#289);
#249=AXIS2_PLACEMENT_3D('',#378,#290,#291);
#250=AXIS2_PLACEMENT_3D('',#379,#292,#293);
#251=AXIS2_PLACEMENT_3D('',#380,#294,#295);
#252=AXIS2_PLACEMENT_3D('',#381,#296,#297);
#253=AXIS2_PLACEMENT_3D('',#383,#298,#299);
#254=AXIS2_PLACEMENT_3D('',#385,#300,#301);
#255=AXIS2_PLACEMENT_3D('',#386,#302,#303);
#256=AXIS2_PLACEMENT_3D('',#387,#304,#305);
#257=AXIS2_PLACEMENT_3D('',#388,#306,#307);
#258=AXIS2_PLACEMENT_3D('',#389,#308,#309);
#259=AXIS2_PLACEMENT_3D('',#391,#310,#311);
#260=AXIS2_PLACEMENT_3D('',#392,#312,#313);
#261=AXIS2_PLACEMENT_3D('',#394,#314,#315);
#262=AXIS2_PLACEMENT_3D('',#396,#316,#317);
#263=AXIS2_PLACEMENT_3D('',#407,#320,#321);
#264=DIRECTION('',(0.,0.,1.));
#265=DIRECTION('',(1.,0.,0.));
#266=DIRECTION('',(0.,0.,1.));
#267=DIRECTION('',(1.,0.,0.));
#268=DIRECTION('',(0.,0.,1.));
#269=DIRECTION('',(1.,0.,0.));
#270=DIRECTION('',(0.,0.,1.));
#271=DIRECTION('',(1.,0.,0.));
#272=DIRECTION('',(0.,0.,-1.));
#273=DIRECTION('',(1.,0.,0.));
#274=DIRECTION('',(0.,0.,1.));
#275=DIRECTION('',(-1.,0.,0.));
#276=DIRECTION('',(0.,0.,-1.));
#277=DIRECTION('',(1.,0.,0.));
#278=DIRECTION('',(0.,0.,-1.));
#279=DIRECTION('',(1.,0.,0.));
#280=DIRECTION('',(0.,0.,-1.));
#281=DIRECTION('',(1.,0.,0.));
#282=DIRECTION('',(0.,0.,-1.));
#283=DIRECTION('',(1.,0.,0.));
#284=DIRECTION('',(-0.000250000680275533,1.3101980472451E-5,-0.999999968663998));
#285=DIRECTION('',(0.998629503461525,-0.0523359546027876,-0.000250343767708585));
#286=DIRECTION('',(0.,0.,-1.));
#287=DIRECTION('',(1.,0.,0.));
#288=DIRECTION('',(-0.000250000680275533,1.3101980472451E-5,-0.999999968663998));
#289=DIRECTION('',(0.998629503461525,-0.0523359546027876,-0.000250343767708585));
#290=DIRECTION('',(0.,0.,-1.));
#291=DIRECTION('',(1.,0.,-1.5413728839079E-16));
#292=DIRECTION('',(0.000250000680275533,-1.3101980472451E-5,0.999999968663998));
#293=DIRECTION('',(0.998629503461525,-0.0523359546027876,-0.000250343767708585));
#294=DIRECTION('',(0.,0.,-1.));
#295=DIRECTION('',(1.,0.,1.30814542786008E-14));
#296=DIRECTION('',(0.,0.,-1.));
#297=DIRECTION('',(1.,0.,0.));
#298=DIRECTION('',(0.,0.,-1.));
#299=DIRECTION('',(1.,0.,0.));
#300=DIRECTION('',(0.,0.,-1.));
#301=DIRECTION('',(1.,0.,0.));
#302=DIRECTION('',(0.,0.,-1.));
#303=DIRECTION('',(1.,0.,4.14262322621324E-17));
#304=DIRECTION('',(0.,0.,1.));
#305=DIRECTION('',(-1.,0.,-8.20200225048139E-17));
#306=DIRECTION('',(0.000250000680275533,-1.3101980472451E-5,0.999999968663998));
#307=DIRECTION('',(0.99999996874983,0.,-0.000250000680296993));
#308=DIRECTION('',(0.,0.,1.));
#309=DIRECTION('',(1.,0.,0.));
#310=DIRECTION('',(0.,0.,1.));
#311=DIRECTION('',(1.,0.,0.));
#312=DIRECTION('',(0.,0.,1.));
#313=DIRECTION('',(1.,0.,0.));
#314=DIRECTION('',(0.,0.,1.));
#315=DIRECTION('',(1.,0.,0.));
#316=DIRECTION('',(0.,0.,-1.));
#317=DIRECTION('',(1.,0.,0.));
#318=DIRECTION('',(-0.998629503461517,0.0523359546029407,0.000250343767708585));
#319=DIRECTION('',(0.,0.,1.));
#320=DIRECTION('',(0.,0.,1.));
#321=DIRECTION('',(1.,0.,0.));
#322=DIRECTION('',(-0.706621627149352,0.0370324702722641,-0.706621873557801));
#323=DIRECTION('',(0.,0.,1.));
#324=CARTESIAN_POINT('',(0.,0.,0.));
#325=CARTESIAN_POINT('',(0.,0.,0.));
#326=CARTESIAN_POINT('',(0.,0.,-32.));
#327=CARTESIAN_POINT('',(0.,0.,-75.));
#328=CARTESIAN_POINT('CRP',(-3.995,0.,-75.));
#329=CARTESIAN_POINT('',(0.,0.,-59.0016599584693));
#330=CARTESIAN_POINT('',(-0.530193655472456,0.,-59.0016599584693));
#331=CARTESIAN_POINT('',(-1.06038731094491,0.,-59.0016599584693));
#332=CARTESIAN_POINT('',(-1.59058096641737,0.,-59.0016599584693));
#333=CARTESIAN_POINT('',(-2.12077462188983,0.,-59.0016599584693));
#334=CARTESIAN_POINT('',(-2.9197746303481,-1.42965281466382E-16,-59.0016599584693));
#335=CARTESIAN_POINT('',(-3.18858096639517,-1.89735380184964E-16,-59.0017949139297));
#336=CARTESIAN_POINT('',(-3.45738731092521,7.20772098554206E-16,-59.0018623375222));
#337=CARTESIAN_POINT('',(-3.72619365546065,7.20772098554206E-16,-59.0019297395702));
#338=CARTESIAN_POINT('',(-3.995,3.60386049277103E-16,-59.0019971260319));
#339=CARTESIAN_POINT('',(-3.995,0.,-62.1022976631735));
#340=CARTESIAN_POINT('',(-3.995,0.,-65.2025982003151));
#341=CARTESIAN_POINT('',(-3.995,0.,-68.3028987374567));
#342=CARTESIAN_POINT('',(-3.995,0.,-71.4031992745983));
#343=CARTESIAN_POINT('',(-3.995,1.54762183886221E-16,-74.50349981174));
#344=CARTESIAN_POINT('',(-3.89570985529199,3.09524367772442E-16,-74.6027901617814));
#345=CARTESIAN_POINT('',(-3.79642395201494,3.09524367772443E-16,-74.7020847532529));
#346=CARTESIAN_POINT('',(-3.69714281995068,-6.26804380968183E-16,-74.8013841150008));
#347=CARTESIAN_POINT('',(-3.5978671114062,-6.26804380968182E-16,-74.9006888986326));
#348=CARTESIAN_POINT('',(-3.49859998690723,-3.13402190484091E-16,-75.));
#349=CARTESIAN_POINT('',(-2.79888180044393,0.,-75.));
#350=CARTESIAN_POINT('',(-2.09916135033295,0.,-75.));
#351=CARTESIAN_POINT('',(-1.39944090022197,0.,-75.));
#352=CARTESIAN_POINT('',(-0.699720450110983,0.,-75.));
#353=CARTESIAN_POINT('',(0.,0.,-75.));
#354=CARTESIAN_POINT('',(0.,0.,-71.8003319916939));
#355=CARTESIAN_POINT('',(0.,0.,-68.6006639833877));
#356=CARTESIAN_POINT('',(0.,0.,-65.4009959750816));
#357=CARTESIAN_POINT('',(0.,0.,-62.2013279667755));
#358=CARTESIAN_POINT('',(0.,0.,-59.0016599584693));
#359=CARTESIAN_POINT('',(0.,0.,0.));
#360=CARTESIAN_POINT('',(0.,0.,-32.));
#361=CARTESIAN_POINT('',(0.,0.,-75.));
#362=CARTESIAN_POINT('',(0.,0.,0.));
#363=CARTESIAN_POINT('',(4.6,0.,0.));
#364=CARTESIAN_POINT('',(0.,0.,0.));
#365=CARTESIAN_POINT('',(0.,0.,-57.5821795450957));
#366=CARTESIAN_POINT('',(3.7435,0.,-57.5821795450957));
#367=CARTESIAN_POINT('',(0.,0.,-34.5));
#368=CARTESIAN_POINT('',(-3.74201665132378,0.105373769105693,-34.5));
#369=CARTESIAN_POINT('',(0.,0.,-75.));
#370=CARTESIAN_POINT('',(0.,0.,-59.));
#371=CARTESIAN_POINT('',(-3.11655908453117,2.49701864131084,-59.0001865171938));
#372=CARTESIAN_POINT('',(-3.71204620673997,-1.47267451142889,-59.0000554321347));
#373=CARTESIAN_POINT('',(0.000176048694439904,-9.22632112124635E-6,-59.0009984191332));
#374=CARTESIAN_POINT('',(-3.99349999966255,-0.000209631134804044,-58.9999999999987));
#375=CARTESIAN_POINT('',(0.,0.,-59.));
#376=CARTESIAN_POINT('',(-3.99019969882505,-0.162322578173706,-59.0000029490769));
#377=CARTESIAN_POINT('',(0.000176048694439904,-9.22632112124635E-6,-59.0009984191332));
#378=CARTESIAN_POINT('',(0.,0.,-57.5821795450957));
#379=CARTESIAN_POINT('',(2.49594452592199E-7,-1.30806909816842E-8,-59.0009983750626));
#380=CARTESIAN_POINT('',(0.,0.,-59.));
#381=CARTESIAN_POINT('',(0.,0.,-32.));
#382=CARTESIAN_POINT('',(5.,0.,-32.));
#383=CARTESIAN_POINT('',(0.,0.,-0.399999999999998));
#384=CARTESIAN_POINT('',(5.,0.,-0.399999999999998));
#385=CARTESIAN_POINT('',(0.,0.,-75.));
#386=CARTESIAN_POINT('',(0.,0.,-0.399999999999998));
#387=CARTESIAN_POINT('',(0.,0.,-32.));
#388=CARTESIAN_POINT('',(-3.99349999449788,-0.000209631405472568,-59.));
#389=CARTESIAN_POINT('',(0.,0.,-59.0016599584694));
#390=CARTESIAN_POINT('',(2.65096827736228,0.,-59.0016599584694));
#391=CARTESIAN_POINT('',(0.,0.,-59.0016599584694));
#392=CARTESIAN_POINT('',(0.,0.,-59.0019971260319));
#393=CARTESIAN_POINT('',(3.995,0.,-59.0019971260319));
#394=CARTESIAN_POINT('',(0.,0.,-74.50349981174));
#395=CARTESIAN_POINT('',(3.995,0.,-74.50349981174));
#396=CARTESIAN_POINT('',(0.,0.,-75.));
#397=CARTESIAN_POINT('',(8.79728229786774,-0.251545931273297,-59.003200997378));
#398=CARTESIAN_POINT('',(0.,0.,-59.));
#399=CARTESIAN_POINT('',(3.49849998272773,0.0261514827674237,-75.));
#400=CARTESIAN_POINT('',(3.44619701719288,7.02315144822289,-75.));
#401=CARTESIAN_POINT('',(-3.55080294826258,6.97084848268804,-75.));
#402=CARTESIAN_POINT('',(-3.49849998272773,-0.0261514827674233,-75.));
#403=CARTESIAN_POINT('',(-3.44619701719289,-7.02315144822289,-75.));
#404=CARTESIAN_POINT('',(3.55080294826258,-6.97084848268804,-75.));
#405=CARTESIAN_POINT('',(3.49849998272773,0.0261514827674237,-75.));
#406=CARTESIAN_POINT('',(3.49849998272773,0.0261514827674233,-75.));
#407=CARTESIAN_POINT('',(6.391891785929,-0.125484756234099,-75.));
#408=CARTESIAN_POINT('',(3.99499999785155,0.000131019560789833,-74.50349981174));
#409=CARTESIAN_POINT('',(0.,0.,-59.));
#410=MECHANICAL_DESIGN_GEOMETRIC_PRESENTATION_REPRESENTATION('',(#204,#205,
#206,#207,#208,#209,#210,#211,#212,#213),#411);
#411=(
GEOMETRIC_REPRESENTATION_CONTEXT(3)
GLOBAL_UNCERTAINTY_ASSIGNED_CONTEXT((#412))
GLOBAL_UNIT_ASSIGNED_CONTEXT((#418,#414,#413))
REPRESENTATION_CONTEXT('N5TS-7','TOP_LEVEL_ASSEMBLY_PART')
);
#412=UNCERTAINTY_MEASURE_WITH_UNIT(LENGTH_MEASURE(0.0508),#418,
'DISTANCE_ACCURACY_VALUE','Maximum Tolerance applied to model');
#413=(
NAMED_UNIT(*)
SI_UNIT($,.STERADIAN.)
SOLID_ANGLE_UNIT()
);
#414=(
CONVERSION_BASED_UNIT('DEGREE',#416)
NAMED_UNIT(#415)
PLANE_ANGLE_UNIT()
);
#415=DIMENSIONAL_EXPONENTS(0.,0.,0.,0.,0.,0.,0.);
#416=PLANE_ANGLE_MEASURE_WITH_UNIT(PLANE_ANGLE_MEASURE(0.0174532925),#417);
#417=(
NAMED_UNIT(*)
PLANE_ANGLE_UNIT()
SI_UNIT($,.RADIAN.)
);
#418=(
LENGTH_UNIT()
NAMED_UNIT(*)
SI_UNIT(.MILLI.,.METRE.)
);
ENDSEC;
END-ISO-10303-21;
