ISO-10303-21;
HEADER;
/* Generated by software containing ST-Developer
 * from STEP Tools, Inc. (www.steptools.com) 
 */
/* OPTION: using custom schema-name function */

FILE_DESCRIPTION(
/* description */ (''),
/* implementation_level */ '2;1');

FILE_NAME(
/* name */ 'N5TS-8.01H7-EB45_Detailed.stp',
/* time_stamp */ '2024-09-06T14:01:43+06:00',
/* author */ (''),
/* organization */ (''),
/* preprocessor_version */ 'ST-DEVELOPER v18.102',
/* originating_system */ 'SIEMENS PLM Software NX2206.8101',
/* authorisation */ '');

FILE_SCHEMA (('AUTOMOTIVE_DESIGN { 1 0 10303 214 3 1 1 1 }'));
ENDSEC;

DATA;
#10=CONSTRUCTIVE_GEOMETRY_REPRESENTATION_RELATIONSHIP(
'supplemental geometry','',#34,#11);
#11=CONSTRUCTIVE_GEOMETRY_REPRESENTATION('supplemental geometry',(#227,
#228,#229),#391);
#12=GEOMETRICALLY_BOUNDED_WIREFRAME_SHAPE_REPRESENTATION(
'N5TS-8.01H7-EB45,RX2000_step_objects-None',(#35),#391);
#13=PROPERTY_DEFINITION_REPRESENTATION(#17,#15);
#14=PROPERTY_DEFINITION_REPRESENTATION(#18,#16);
#15=REPRESENTATION('',(#19),#391);
#16=REPRESENTATION('',(#20),#391);
#17=PROPERTY_DEFINITION('pmi validation property','',#25);
#18=PROPERTY_DEFINITION('pmi validation property','',#25);
#19=VALUE_REPRESENTATION_ITEM('number of annotations',COUNT_MEASURE(0.));
#20=VALUE_REPRESENTATION_ITEM('number of views',COUNT_MEASURE(0.));
#21=SHAPE_REPRESENTATION_RELATIONSHIP('None',
'relationship between N5TS-8.01H7-EB45,RX2000_step_objects-None and N5
TS-8.01H7-EB45,RX2000_step_objects-None',#34,#23);
#22=SHAPE_REPRESENTATION_RELATIONSHIP('None',
'relationship between N5TS-8.01H7-EB45,RX2000_step_objects-None and N5
TS-8.01H7-EB45,RX2000_step_objects-None',#34,#12);
#23=ADVANCED_BREP_SHAPE_REPRESENTATION(
'N5TS-8.01H7-EB45,RX2000_step_objects-None',(#55,#56),#391);
#24=SHAPE_DEFINITION_REPRESENTATION(#25,#34);
#25=PRODUCT_DEFINITION_SHAPE('','',#26);
#26=PRODUCT_DEFINITION(' ','',#28,#27);
#27=PRODUCT_DEFINITION_CONTEXT('part definition',#33,'design');
#28=PRODUCT_DEFINITION_FORMATION_WITH_SPECIFIED_SOURCE(' ',' ',#30,
 .NOT_KNOWN.);
#29=PRODUCT_RELATED_PRODUCT_CATEGORY('part','',(#30));
#30=PRODUCT('N5TS-8.01H7-EB45,RX2000_step_objects',
'N5TS-8.01H7-EB45,RX2000_step_objects',' ',(#31));
#31=PRODUCT_CONTEXT(' ',#33,'mechanical');
#32=APPLICATION_PROTOCOL_DEFINITION('international standard',
'automotive_design',2010,#33);
#33=APPLICATION_CONTEXT(
'core data for automotive mechanical design processes');
#34=SHAPE_REPRESENTATION('N5TS-8.01H7-EB45,RX2000_step_objects-None',(#226),
#391);
#35=GEOMETRIC_CURVE_SET('None',(#309,#310,#311,#312,#192));
#36=(
BOUNDED_CURVE()
B_SPLINE_CURVE(3,(#379,#380,#381,#382,#383,#384,#385),.UNSPECIFIED.,.T.,
 .F.)
B_SPLINE_CURVE_WITH_KNOTS((1,3,3,3,1),(-0.5,0.,0.5,1.,1.5),
 .UNSPECIFIED.)
CURVE()
GEOMETRIC_REPRESENTATION_ITEM()
RATIONAL_B_SPLINE_CURVE((1.,0.333333333333333,0.333333333333333,1.,0.333333333333333,
0.333333333333333,1.))
REPRESENTATION_ITEM('')
);
#37=SURFACE_OF_REVOLUTION('',#41,#39);
#38=SURFACE_OF_REVOLUTION('',#42,#40);
#39=AXIS1_PLACEMENT('',#378,#303);
#40=AXIS1_PLACEMENT('',#389,#307);
#41=LINE('',#377,#43);
#42=LINE('',#388,#44);
#43=VECTOR('',#302,1.35131503965438);
#44=VECTOR('',#306,0.702639143808827);
#45=SURFACE_STYLE_USAGE(.BOTH.,#47);
#46=SURFACE_STYLE_USAGE(.BOTH.,#48);
#47=SURFACE_SIDE_STYLE('',(#49));
#48=SURFACE_SIDE_STYLE('',(#50));
#49=SURFACE_STYLE_FILL_AREA(#51);
#50=SURFACE_STYLE_FILL_AREA(#52);
#51=FILL_AREA_STYLE('',(#53));
#52=FILL_AREA_STYLE('',(#54));
#53=FILL_AREA_STYLE_COLOUR('',#224);
#54=FILL_AREA_STYLE_COLOUR('',#225);
#55=MANIFOLD_SOLID_BREP('NOCUT',#57);
#56=MANIFOLD_SOLID_BREP('CUT',#58);
#57=CLOSED_SHELL('',(#91,#92,#93,#94,#95,#96,#97,#98));
#58=CLOSED_SHELL('',(#99,#100,#101,#102,#103));
#59=CYLINDRICAL_SURFACE('',#239,5.);
#60=CYLINDRICAL_SURFACE('',#244,3.7535);
#61=CYLINDRICAL_SURFACE('',#250,4.005);
#62=CONICAL_SURFACE('',#235,5.,26.5008439748522);
#63=CONICAL_SURFACE('',#238,5.,45.0000000000002);
#64=CONICAL_SURFACE('',#242,3.7535,10.);
#65=CONICAL_SURFACE('',#243,4.00349999999999,0.0143239445799191);
#66=FACE_BOUND('',#114,.T.);
#67=FACE_BOUND('',#115,.T.);
#68=FACE_BOUND('',#116,.T.);
#69=FACE_BOUND('',#117,.T.);
#70=FACE_BOUND('',#118,.T.);
#71=FACE_BOUND('',#119,.T.);
#72=FACE_BOUND('',#120,.T.);
#73=FACE_BOUND('',#121,.T.);
#74=FACE_BOUND('',#123,.T.);
#75=FACE_BOUND('',#124,.T.);
#76=FACE_BOUND('',#127,.T.);
#77=FACE_BOUND('',#128,.T.);
#78=FACE_BOUND('',#129,.T.);
#79=FACE_BOUND('',#130,.T.);
#80=FACE_BOUND('',#132,.T.);
#81=FACE_BOUND('',#133,.T.);
#82=CIRCLE('',#233,5.);
#83=CIRCLE('',#234,3.7535);
#84=CIRCLE('',#236,5.);
#85=CIRCLE('',#237,4.6);
#86=CIRCLE('',#240,4.00349999999999);
#87=CIRCLE('',#241,3.7535);
#88=CIRCLE('',#246,2.65648240106039);
#89=CIRCLE('',#248,4.005);
#90=CIRCLE('',#249,4.005);
#91=ADVANCED_FACE('',(#108),#104,.F.);
#92=ADVANCED_FACE('NONE',(#66,#67),#62,.T.);
#93=ADVANCED_FACE('NONE',(#68,#69),#63,.T.);
#94=ADVANCED_FACE('NONE',(#70,#71),#59,.T.);
#95=ADVANCED_FACE('NONE',(#72,#73),#64,.T.);
#96=ADVANCED_FACE('NONE',(#109),#65,.T.);
#97=ADVANCED_FACE('NONE',(#74,#75),#60,.T.);
#98=ADVANCED_FACE('NONE',(#110),#105,.T.);
#99=ADVANCED_FACE('',(#111),#106,.T.);
#100=ADVANCED_FACE('',(#76,#77),#61,.T.);
#101=ADVANCED_FACE('',(#78,#79),#37,.T.);
#102=ADVANCED_FACE('',(#112),#107,.F.);
#103=ADVANCED_FACE('',(#80,#81),#38,.F.);
#104=PLANE('',#232);
#105=PLANE('',#245);
#106=PLANE('',#247);
#107=PLANE('',#251);
#108=FACE_OUTER_BOUND('',#113,.T.);
#109=FACE_OUTER_BOUND('',#122,.T.);
#110=FACE_OUTER_BOUND('',#125,.T.);
#111=FACE_OUTER_BOUND('',#126,.T.);
#112=FACE_OUTER_BOUND('',#131,.T.);
#113=EDGE_LOOP('',(#134,#135));
#114=EDGE_LOOP('',(#136));
#115=EDGE_LOOP('',(#137));
#116=EDGE_LOOP('',(#138));
#117=EDGE_LOOP('',(#139));
#118=EDGE_LOOP('',(#140));
#119=EDGE_LOOP('',(#141));
#120=EDGE_LOOP('',(#142,#143));
#121=EDGE_LOOP('',(#144));
#122=EDGE_LOOP('',(#145,#146));
#123=EDGE_LOOP('',(#147));
#124=EDGE_LOOP('',(#148));
#125=EDGE_LOOP('',(#149));
#126=EDGE_LOOP('',(#150));
#127=EDGE_LOOP('',(#151));
#128=EDGE_LOOP('',(#152));
#129=EDGE_LOOP('',(#153));
#130=EDGE_LOOP('',(#154));
#131=EDGE_LOOP('',(#155));
#132=EDGE_LOOP('',(#156));
#133=EDGE_LOOP('',(#157));
#134=ORIENTED_EDGE('',*,*,#169,.F.);
#135=ORIENTED_EDGE('',*,*,#170,.F.);
#136=ORIENTED_EDGE('',*,*,#171,.T.);
#137=ORIENTED_EDGE('',*,*,#172,.F.);
#138=ORIENTED_EDGE('',*,*,#173,.F.);
#139=ORIENTED_EDGE('',*,*,#174,.T.);
#140=ORIENTED_EDGE('',*,*,#171,.F.);
#141=ORIENTED_EDGE('',*,*,#173,.T.);
#142=ORIENTED_EDGE('',*,*,#170,.T.);
#143=ORIENTED_EDGE('',*,*,#175,.F.);
#144=ORIENTED_EDGE('',*,*,#176,.T.);
#145=ORIENTED_EDGE('',*,*,#175,.T.);
#146=ORIENTED_EDGE('',*,*,#169,.T.);
#147=ORIENTED_EDGE('',*,*,#176,.F.);
#148=ORIENTED_EDGE('',*,*,#172,.T.);
#149=ORIENTED_EDGE('',*,*,#174,.F.);
#150=ORIENTED_EDGE('',*,*,#177,.T.);
#151=ORIENTED_EDGE('',*,*,#178,.F.);
#152=ORIENTED_EDGE('',*,*,#179,.T.);
#153=ORIENTED_EDGE('',*,*,#178,.T.);
#154=ORIENTED_EDGE('',*,*,#177,.F.);
#155=ORIENTED_EDGE('',*,*,#180,.F.);
#156=ORIENTED_EDGE('',*,*,#180,.T.);
#157=ORIENTED_EDGE('',*,*,#179,.F.);
#158=VERTEX_POINT('',#347);
#159=VERTEX_POINT('',#348);
#160=VERTEX_POINT('',#352);
#161=VERTEX_POINT('',#354);
#162=VERTEX_POINT('',#357);
#163=VERTEX_POINT('',#359);
#164=VERTEX_POINT('',#364);
#165=VERTEX_POINT('',#370);
#166=VERTEX_POINT('',#373);
#167=VERTEX_POINT('',#375);
#168=VERTEX_POINT('',#386);
#169=EDGE_CURVE('',#158,#159,#181,.T.);
#170=EDGE_CURVE('',#159,#158,#182,.T.);
#171=EDGE_CURVE('NONE',#160,#160,#82,.T.);
#172=EDGE_CURVE('NONE',#161,#161,#83,.T.);
#173=EDGE_CURVE('NONE',#162,#162,#84,.T.);
#174=EDGE_CURVE('NONE',#163,#163,#85,.T.);
#175=EDGE_CURVE('',#159,#158,#86,.T.);
#176=EDGE_CURVE('NONE',#164,#164,#87,.T.);
#177=EDGE_CURVE('',#165,#165,#88,.T.);
#178=EDGE_CURVE('',#166,#166,#89,.T.);
#179=EDGE_CURVE('',#167,#167,#90,.T.);
#180=EDGE_CURVE('',#168,#168,#36,.T.);
#181=ELLIPSE('',#230,4.00350160719562,4.00350025021882);
#182=ELLIPSE('',#231,4.00367792268712,4.00367652345874);
#183=CURVE_STYLE('',#188,POSITIVE_LENGTH_MEASURE(0.7),#187);
#184=CURVE_STYLE('',#189,POSITIVE_LENGTH_MEASURE(0.7),#222);
#185=CURVE_STYLE('',#190,POSITIVE_LENGTH_MEASURE(0.7),#222);
#186=CURVE_STYLE('',#191,POSITIVE_LENGTH_MEASURE(0.7),#222);
#187=DRAUGHTING_PRE_DEFINED_COLOUR('blue');
#188=DRAUGHTING_PRE_DEFINED_CURVE_FONT('continuous');
#189=DRAUGHTING_PRE_DEFINED_CURVE_FONT('continuous');
#190=DRAUGHTING_PRE_DEFINED_CURVE_FONT('continuous');
#191=DRAUGHTING_PRE_DEFINED_CURVE_FONT('continuous');
#192=B_SPLINE_CURVE_WITH_KNOTS('CUTTING PART LINE',5,(#313,#314,#315,#316,
#317,#318,#319,#320,#321,#322,#323,#324,#325,#326,#327,#328,#329,#330,#331,
#332,#333,#334,#335,#336,#337,#338,#339,#340,#341,#342),.UNSPECIFIED.,.T.,
 .F.,(6,4,5,5,5,5,6),(0.,0.066894003335202,0.10085160487361,0.491145057149825,
0.508824637822629,0.597176223046326,1.),.UNSPECIFIED.);
#193=PRESENTATION_LAYER_ASSIGNMENT('1','Layer 1',(#309,#310,#311,#312,#192,
#227,#228,#229,#55,#56));
#194=STYLED_ITEM('',(#204),#309);
#195=STYLED_ITEM('',(#205),#310);
#196=STYLED_ITEM('',(#206),#311);
#197=STYLED_ITEM('',(#207),#312);
#198=STYLED_ITEM('',(#208),#192);
#199=STYLED_ITEM('',(#209),#227);
#200=STYLED_ITEM('',(#210),#228);
#201=STYLED_ITEM('',(#211),#229);
#202=STYLED_ITEM('',(#212),#55);
#203=STYLED_ITEM('',(#213),#56);
#204=PRESENTATION_STYLE_ASSIGNMENT((#214));
#205=PRESENTATION_STYLE_ASSIGNMENT((#215));
#206=PRESENTATION_STYLE_ASSIGNMENT((#216));
#207=PRESENTATION_STYLE_ASSIGNMENT((#217));
#208=PRESENTATION_STYLE_ASSIGNMENT((#183));
#209=PRESENTATION_STYLE_ASSIGNMENT((#184));
#210=PRESENTATION_STYLE_ASSIGNMENT((#185));
#211=PRESENTATION_STYLE_ASSIGNMENT((#186));
#212=PRESENTATION_STYLE_ASSIGNMENT((#45));
#213=PRESENTATION_STYLE_ASSIGNMENT((#46));
#214=POINT_STYLE('',#218,POSITIVE_LENGTH_MEASURE(3.),#222);
#215=POINT_STYLE('',#219,POSITIVE_LENGTH_MEASURE(3.),#222);
#216=POINT_STYLE('',#220,POSITIVE_LENGTH_MEASURE(3.),#222);
#217=POINT_STYLE('',#221,POSITIVE_LENGTH_MEASURE(3.),#223);
#218=PRE_DEFINED_POINT_MARKER_SYMBOL('plus');
#219=PRE_DEFINED_POINT_MARKER_SYMBOL('plus');
#220=PRE_DEFINED_POINT_MARKER_SYMBOL('plus');
#221=PRE_DEFINED_POINT_MARKER_SYMBOL('plus');
#222=COLOUR_RGB('Medium Maroon',0.6,0.4,0.4);
#223=COLOUR_RGB('Medium Royal',0.301960784313725,0.427450980392157,0.701960784313725);
#224=COLOUR_RGB('medium gray',0.490196078431373,0.490196078431373,0.490196078431373);
#225=COLOUR_RGB('light gray',0.8,0.8,0.8);
#226=AXIS2_PLACEMENT_3D('',#308,#252,#253);
#227=AXIS2_PLACEMENT_3D('PCS',#343,#254,#255);
#228=AXIS2_PLACEMENT_3D('MCS',#344,#256,#257);
#229=AXIS2_PLACEMENT_3D('CIP',#345,#258,#259);
#230=AXIS2_PLACEMENT_3D('',#346,#260,#261);
#231=AXIS2_PLACEMENT_3D('',#349,#262,#263);
#232=AXIS2_PLACEMENT_3D('',#350,#264,#265);
#233=AXIS2_PLACEMENT_3D('',#351,#266,#267);
#234=AXIS2_PLACEMENT_3D('',#353,#268,#269);
#235=AXIS2_PLACEMENT_3D('',#355,#270,#271);
#236=AXIS2_PLACEMENT_3D('',#356,#272,#273);
#237=AXIS2_PLACEMENT_3D('',#358,#274,#275);
#238=AXIS2_PLACEMENT_3D('',#360,#276,#277);
#239=AXIS2_PLACEMENT_3D('',#361,#278,#279);
#240=AXIS2_PLACEMENT_3D('',#362,#280,#281);
#241=AXIS2_PLACEMENT_3D('',#363,#282,#283);
#242=AXIS2_PLACEMENT_3D('',#365,#284,#285);
#243=AXIS2_PLACEMENT_3D('',#366,#286,#287);
#244=AXIS2_PLACEMENT_3D('',#367,#288,#289);
#245=AXIS2_PLACEMENT_3D('',#368,#290,#291);
#246=AXIS2_PLACEMENT_3D('',#369,#292,#293);
#247=AXIS2_PLACEMENT_3D('',#371,#294,#295);
#248=AXIS2_PLACEMENT_3D('',#372,#296,#297);
#249=AXIS2_PLACEMENT_3D('',#374,#298,#299);
#250=AXIS2_PLACEMENT_3D('',#376,#300,#301);
#251=AXIS2_PLACEMENT_3D('',#387,#304,#305);
#252=DIRECTION('',(0.,0.,1.));
#253=DIRECTION('',(1.,0.,0.));
#254=DIRECTION('',(0.,0.,1.));
#255=DIRECTION('',(1.,0.,0.));
#256=DIRECTION('',(0.,0.,1.));
#257=DIRECTION('',(1.,0.,0.));
#258=DIRECTION('',(0.,0.,1.));
#259=DIRECTION('',(1.,0.,0.));
#260=DIRECTION('',(0.000808216536043331,-0.000157101380126301,0.999999661052536));
#261=DIRECTION('',(0.981626850727624,-0.190808930702299,-0.000823343678406211));
#262=DIRECTION('',(0.000808216536043331,-0.000157101380126301,0.999999661052536));
#263=DIRECTION('',(0.981626850727624,-0.190808930702299,-0.000823343678406211));
#264=DIRECTION('',(0.000808216536043331,-0.000157101380126301,0.999999661052536));
#265=DIRECTION('',(0.999999673392954,0.,-0.000808216546017065));
#266=DIRECTION('',(0.,0.,-1.));
#267=DIRECTION('',(-1.,0.,0.));
#268=DIRECTION('',(0.,0.,-1.));
#269=DIRECTION('',(-1.,0.,0.));
#270=DIRECTION('',(0.,0.,1.));
#271=DIRECTION('',(1.,0.,-8.26714921037402E-17));
#272=DIRECTION('',(0.,0.,-1.));
#273=DIRECTION('',(-1.,0.,0.));
#274=DIRECTION('',(0.,0.,-1.));
#275=DIRECTION('',(-1.,0.,0.));
#276=DIRECTION('',(0.,0.,-1.));
#277=DIRECTION('',(-1.,0.,4.14262322621324E-17));
#278=DIRECTION('',(0.,0.,-1.));
#279=DIRECTION('',(-1.,0.,0.));
#280=DIRECTION('',(0.,0.,-1.));
#281=DIRECTION('',(-1.,0.,0.));
#282=DIRECTION('',(0.,0.,-1.));
#283=DIRECTION('',(-1.,0.,0.));
#284=DIRECTION('',(0.,0.,-1.));
#285=DIRECTION('',(-1.,0.,-2.31193093552677E-16));
#286=DIRECTION('',(0.,0.,-1.));
#287=DIRECTION('',(-1.,0.,1.30506997134697E-14));
#288=DIRECTION('',(0.,0.,-1.));
#289=DIRECTION('',(-1.,0.,0.));
#290=DIRECTION('',(0.,0.,1.));
#291=DIRECTION('',(1.,0.,0.));
#292=DIRECTION('',(0.,0.,1.));
#293=DIRECTION('',(1.,0.,0.));
#294=DIRECTION('',(0.,0.,1.));
#295=DIRECTION('',(1.,0.,0.));
#296=DIRECTION('',(0.,0.,1.));
#297=DIRECTION('',(1.,0.,0.));
#298=DIRECTION('',(0.,0.,1.));
#299=DIRECTION('',(1.,0.,0.));
#300=DIRECTION('',(0.,0.,-1.));
#301=DIRECTION('',(-1.,0.,0.));
#302=DIRECTION('',(-0.99862920282775,0.0523359388473924,0.00081533095967865));
#303=DIRECTION('',(0.,0.,1.));
#304=DIRECTION('',(0.,0.,1.));
#305=DIRECTION('',(1.,0.,0.));
#306=DIRECTION('',(-0.706621627149352,0.037032470272264,-0.706621873557801));
#307=DIRECTION('',(0.,0.,1.));
#308=CARTESIAN_POINT('',(0.,0.,0.));
#309=CARTESIAN_POINT('',(0.,0.,0.));
#310=CARTESIAN_POINT('',(0.,0.,-32.));
#311=CARTESIAN_POINT('',(0.,0.,-75.));
#312=CARTESIAN_POINT('CRP',(-4.005,0.,-75.));
#313=CARTESIAN_POINT('',(0.,0.,-59.003135993751));
#314=CARTESIAN_POINT('',(-0.531296480212078,0.,-59.003135993751));
#315=CARTESIAN_POINT('',(-1.06259296042416,0.,-59.003135993751));
#316=CARTESIAN_POINT('',(-1.59388944063623,0.,-59.003135993751));
#317=CARTESIAN_POINT('',(-2.12518592084831,0.,-59.003135993751));
#318=CARTESIAN_POINT('',(-2.92618601086522,1.63457894057714E-16,-59.003135993751));
#319=CARTESIAN_POINT('',(-3.19588944039963,2.16840434497101E-16,-59.0035769907381));
#320=CARTESIAN_POINT('',(-3.46559296021411,-3.07234731836896E-16,-59.003797312053));
#321=CARTESIAN_POINT('',(-3.73529648008625,-3.07234731836896E-16,-59.0040175628829));
#322=CARTESIAN_POINT('',(-4.005,-1.53617365918448E-16,-59.0042377627391));
#323=CARTESIAN_POINT('',(-4.005,0.,-62.1040901725446));
#324=CARTESIAN_POINT('',(-4.005,0.,-65.2039425823502));
#325=CARTESIAN_POINT('',(-4.005,0.,-68.3037949921557));
#326=CARTESIAN_POINT('',(-4.005,0.,-71.4036474019612));
#327=CARTESIAN_POINT('',(-4.005,-8.02166670829424E-17,-74.5034998117668));
#328=CARTESIAN_POINT('',(-3.90570982723296,-1.60433334165885E-16,-74.6027901894409));
#329=CARTESIAN_POINT('',(-3.80642388529567,-1.60433334165885E-16,-74.7020847979439));
#330=CARTESIAN_POINT('',(-3.70714270131279,2.20228566286118E-16,-74.8013841634713));
#331=CARTESIAN_POINT('',(-3.6078669240701,2.20228566286118E-16,-74.900688934113));
#332=CARTESIAN_POINT('',(-3.5085997026404,1.10114283143059E-16,-75.));
#333=CARTESIAN_POINT('',(-2.80688156845077,0.,-75.));
#334=CARTESIAN_POINT('',(-2.10516117633808,0.,-75.));
#335=CARTESIAN_POINT('',(-1.40344078422539,0.,-75.));
#336=CARTESIAN_POINT('',(-0.701720392112694,0.,-75.));
#337=CARTESIAN_POINT('',(0.,0.,-75.));
#338=CARTESIAN_POINT('',(0.,0.,-71.8006271987502));
#339=CARTESIAN_POINT('',(0.,0.,-68.6012543975004));
#340=CARTESIAN_POINT('',(0.,0.,-65.4018815962506));
#341=CARTESIAN_POINT('',(0.,0.,-62.2025087950008));
#342=CARTESIAN_POINT('',(0.,0.,-59.003135993751));
#343=CARTESIAN_POINT('',(0.,0.,0.));
#344=CARTESIAN_POINT('',(0.,0.,-32.));
#345=CARTESIAN_POINT('',(0.,0.,-75.));
#346=CARTESIAN_POINT('',(8.08924050256504E-7,-1.57238906957777E-7,-59.0010008756787));
#347=CARTESIAN_POINT('',(-1.70354947556895,-3.62297718443998,-59.0001193814633));
#348=CARTESIAN_POINT('',(-0.465450024234416,3.97635115714647,-59.));
#349=CARTESIAN_POINT('',(0.000570565668402188,-0.000110906731007374,-59.0010013535645));
#350=CARTESIAN_POINT('',(-1.92112510851632,-3.51244794515568,-59.0000000000002));
#351=CARTESIAN_POINT('',(0.,0.,-32.));
#352=CARTESIAN_POINT('',(-5.,0.,-32.));
#353=CARTESIAN_POINT('',(0.,0.,-34.5));
#354=CARTESIAN_POINT('',(-3.75198479268559,0.106641293390779,-34.5));
#355=CARTESIAN_POINT('',(0.,0.,-32.));
#356=CARTESIAN_POINT('',(0.,0.,-0.399999999999998));
#357=CARTESIAN_POINT('',(-5.,0.,-0.399999999999998));
#358=CARTESIAN_POINT('',(0.,0.,0.));
#359=CARTESIAN_POINT('',(-4.6,0.,0.));
#360=CARTESIAN_POINT('',(0.,0.,-0.399999999999998));
#361=CARTESIAN_POINT('',(0.,0.,-75.));
#362=CARTESIAN_POINT('',(0.,0.,-59.));
#363=CARTESIAN_POINT('',(0.,0.,-57.5821795450957));
#364=CARTESIAN_POINT('',(-3.7535,0.,-57.5821795450957));
#365=CARTESIAN_POINT('',(0.,0.,-57.5821795450957));
#366=CARTESIAN_POINT('',(0.,0.,-59.));
#367=CARTESIAN_POINT('',(0.,0.,-75.));
#368=CARTESIAN_POINT('',(0.,0.,0.));
#369=CARTESIAN_POINT('',(0.,0.,-59.003135993751));
#370=CARTESIAN_POINT('',(2.65648240106039,0.,-59.003135993751));
#371=CARTESIAN_POINT('',(0.,0.,-59.003135993751));
#372=CARTESIAN_POINT('',(0.,0.,-59.0042377627391));
#373=CARTESIAN_POINT('',(4.005,0.,-59.0042377627391));
#374=CARTESIAN_POINT('',(0.,0.,-74.5034998117668));
#375=CARTESIAN_POINT('',(4.005,0.,-74.5034998117668));
#376=CARTESIAN_POINT('',(0.,0.,-75.));
#377=CARTESIAN_POINT('',(8.82422987282324,-0.252434116040947,-59.00817242368));
#378=CARTESIAN_POINT('',(0.,0.,-59.));
#379=CARTESIAN_POINT('',(3.50849998275989,0.0261514827657379,-75.));
#380=CARTESIAN_POINT('',(3.45619701722842,7.04315144828552,-75.));
#381=CARTESIAN_POINT('',(-3.56080294829137,6.99084848275405,-75.));
#382=CARTESIAN_POINT('',(-3.50849998275989,-0.0261514827657375,-75.));
#383=CARTESIAN_POINT('',(-3.45619701722842,-7.04315144828552,-75.));
#384=CARTESIAN_POINT('',(3.56080294829137,-6.99084848275405,-75.));
#385=CARTESIAN_POINT('',(3.50849998275989,0.0261514827657379,-75.));
#386=CARTESIAN_POINT('',(3.50849998275989,0.0261514827657384,-75.));
#387=CARTESIAN_POINT('',(6.39752149681403,-0.125255719086758,-75.));
#388=CARTESIAN_POINT('',(4.00499999785691,0.000131019560508448,-74.5034998117668));
#389=CARTESIAN_POINT('',(0.,0.,-59.));
#390=MECHANICAL_DESIGN_GEOMETRIC_PRESENTATION_REPRESENTATION('',(#194,#195,
#196,#197,#198,#199,#200,#201,#202,#203),#391);
#391=(
GEOMETRIC_REPRESENTATION_CONTEXT(3)
GLOBAL_UNCERTAINTY_ASSIGNED_CONTEXT((#392))
GLOBAL_UNIT_ASSIGNED_CONTEXT((#398,#394,#393))
REPRESENTATION_CONTEXT('N5TS-8','TOP_LEVEL_ASSEMBLY_PART')
);
#392=UNCERTAINTY_MEASURE_WITH_UNIT(LENGTH_MEASURE(0.0508),#398,
'DISTANCE_ACCURACY_VALUE','Maximum Tolerance applied to model');
#393=(
NAMED_UNIT(*)
SI_UNIT($,.STERADIAN.)
SOLID_ANGLE_UNIT()
);
#394=(
CONVERSION_BASED_UNIT('DEGREE',#396)
NAMED_UNIT(#395)
PLANE_ANGLE_UNIT()
);
#395=DIMENSIONAL_EXPONENTS(0.,0.,0.,0.,0.,0.,0.);
#396=PLANE_ANGLE_MEASURE_WITH_UNIT(PLANE_ANGLE_MEASURE(0.0174532925),#397);
#397=(
NAMED_UNIT(*)
PLANE_ANGLE_UNIT()
SI_UNIT($,.RADIAN.)
);
#398=(
LENGTH_UNIT()
NAMED_UNIT(*)
SI_UNIT(.MILLI.,.METRE.)
);
ENDSEC;
END-ISO-10303-21;
