ISO-10303-21;
HEADER;
/* Generated by software containing ST-Developer
 * from STEP Tools, Inc. (www.steptools.com) 
 */
/* OPTION: using custom schema-name function */

FILE_DESCRIPTION(
/* description */ (''),
/* implementation_level */ '2;1');

FILE_NAME(
/* name */ 'C5041-.375N1S.0Z4T30_Basic.stp',
/* time_stamp */ '2024-07-09T08:58:28+05:00',
/* author */ (''),
/* organization */ (''),
/* preprocessor_version */ 'ST-DEVELOPER v18.102',
/* originating_system */ 'SIEMENS PLM Software NX2206.8101',
/* authorisation */ '');

FILE_SCHEMA (('AUTOMOTIVE_DESIGN { 1 0 10303 214 3 1 1 1 }'));
ENDSEC;

DATA;
#10=CONSTRUCTIVE_GEOMETRY_REPRESENTATION_RELATIONSHIP(
'supplemental geometry','',#34,#11);
#11=CONSTRUCTIVE_GEOMETRY_REPRESENTATION('supplemental geometry',(#141,
#142,#143),#224);
#12=GEOMETRICALLY_BOUNDED_WIREFRAME_SHAPE_REPRESENTATION(
'inpu32BC92A1c75v-None',(#35),#224);
#13=PROPERTY_DEFINITION_REPRESENTATION(#17,#15);
#14=PROPERTY_DEFINITION_REPRESENTATION(#18,#16);
#15=REPRESENTATION('',(#19),#224);
#16=REPRESENTATION('',(#20),#224);
#17=PROPERTY_DEFINITION('pmi validation property','',#25);
#18=PROPERTY_DEFINITION('pmi validation property','',#25);
#19=VALUE_REPRESENTATION_ITEM('number of annotations',COUNT_MEASURE(0.));
#20=VALUE_REPRESENTATION_ITEM('number of views',COUNT_MEASURE(0.));
#21=SHAPE_REPRESENTATION_RELATIONSHIP('None',
'relationship between inpu32BC92A1c75v-None and inpu32BC92A1c75v-None',
#34,#23);
#22=SHAPE_REPRESENTATION_RELATIONSHIP('None',
'relationship between inpu32BC92A1c75v-None and inpu32BC92A1c75v-None',
#34,#12);
#23=ADVANCED_BREP_SHAPE_REPRESENTATION('inpu32BC92A1c75v-None',(#47,#48),
#224);
#24=SHAPE_DEFINITION_REPRESENTATION(#25,#34);
#25=PRODUCT_DEFINITION_SHAPE('','',#26);
#26=PRODUCT_DEFINITION(' ','',#28,#27);
#27=PRODUCT_DEFINITION_CONTEXT('part definition',#33,'design');
#28=PRODUCT_DEFINITION_FORMATION_WITH_SPECIFIED_SOURCE(' ',' ',#30,
 .NOT_KNOWN.);
#29=PRODUCT_RELATED_PRODUCT_CATEGORY('part','',(#30));
#30=PRODUCT('inpu32BC92A1c75v','inpu32BC92A1c75v',' ',(#31));
#31=PRODUCT_CONTEXT(' ',#33,'mechanical');
#32=APPLICATION_PROTOCOL_DEFINITION('international standard',
'automotive_design',2010,#33);
#33=APPLICATION_CONTEXT(
'core data for automotive mechanical design processes');
#34=SHAPE_REPRESENTATION('inpu32BC92A1c75v-None',(#140),#224);
#35=GEOMETRIC_CURVE_SET('None',(#189,#118));
#36=CYLINDRICAL_SURFACE('',#154,4.7625);
#37=SURFACE_STYLE_USAGE(.BOTH.,#39);
#38=SURFACE_STYLE_USAGE(.BOTH.,#40);
#39=SURFACE_SIDE_STYLE('',(#41));
#40=SURFACE_SIDE_STYLE('',(#42));
#41=SURFACE_STYLE_FILL_AREA(#43);
#42=SURFACE_STYLE_FILL_AREA(#44);
#43=FILL_AREA_STYLE('',(#45));
#44=FILL_AREA_STYLE('',(#46));
#45=FILL_AREA_STYLE_COLOUR('',#138);
#46=FILL_AREA_STYLE_COLOUR('',#139);
#47=MANIFOLD_SOLID_BREP('CUT',#49);
#48=MANIFOLD_SOLID_BREP('NOCUT',#50);
#49=CLOSED_SHELL('',(#59,#60,#61));
#50=CLOSED_SHELL('',(#62,#63,#64,#65));
#51=CONICAL_SURFACE('',#147,0.508000000000004,30.);
#52=CONICAL_SURFACE('',#151,4.7625,45.);
#53=FACE_BOUND('',#75,.T.);
#54=FACE_BOUND('',#76,.T.);
#55=FACE_BOUND('',#78,.T.);
#56=FACE_BOUND('',#79,.T.);
#57=FACE_BOUND('',#81,.T.);
#58=FACE_BOUND('',#82,.T.);
#59=ADVANCED_FACE('',(#70),#66,.T.);
#60=ADVANCED_FACE('',(#53,#54),#51,.T.);
#61=ADVANCED_FACE('',(#71),#67,.F.);
#62=ADVANCED_FACE('',(#55,#56),#52,.T.);
#63=ADVANCED_FACE('',(#72),#68,.T.);
#64=ADVANCED_FACE('',(#57,#58),#36,.T.);
#65=ADVANCED_FACE('',(#73),#69,.T.);
#66=PLANE('',#145);
#67=PLANE('',#148);
#68=PLANE('',#152);
#69=PLANE('',#155);
#70=FACE_OUTER_BOUND('',#74,.T.);
#71=FACE_OUTER_BOUND('',#77,.T.);
#72=FACE_OUTER_BOUND('',#80,.T.);
#73=FACE_OUTER_BOUND('',#83,.T.);
#74=EDGE_LOOP('',(#84));
#75=EDGE_LOOP('',(#85));
#76=EDGE_LOOP('',(#86));
#77=EDGE_LOOP('',(#87));
#78=EDGE_LOOP('',(#88));
#79=EDGE_LOOP('',(#89));
#80=EDGE_LOOP('',(#90));
#81=EDGE_LOOP('',(#91));
#82=EDGE_LOOP('',(#92));
#83=EDGE_LOOP('',(#93));
#84=ORIENTED_EDGE('',*,*,#99,.T.);
#85=ORIENTED_EDGE('',*,*,#100,.F.);
#86=ORIENTED_EDGE('',*,*,#99,.F.);
#87=ORIENTED_EDGE('',*,*,#100,.T.);
#88=ORIENTED_EDGE('',*,*,#101,.T.);
#89=ORIENTED_EDGE('',*,*,#102,.F.);
#90=ORIENTED_EDGE('',*,*,#101,.F.);
#91=ORIENTED_EDGE('',*,*,#102,.T.);
#92=ORIENTED_EDGE('',*,*,#103,.F.);
#93=ORIENTED_EDGE('',*,*,#103,.T.);
#94=VERTEX_POINT('',#207);
#95=VERTEX_POINT('',#210);
#96=VERTEX_POINT('',#214);
#97=VERTEX_POINT('',#216);
#98=VERTEX_POINT('',#220);
#99=EDGE_CURVE('',#94,#94,#104,.T.);
#100=EDGE_CURVE('',#95,#95,#105,.T.);
#101=EDGE_CURVE('',#96,#96,#106,.T.);
#102=EDGE_CURVE('',#97,#97,#107,.T.);
#103=EDGE_CURVE('',#98,#98,#108,.T.);
#104=CIRCLE('',#144,0.508000000000004);
#105=CIRCLE('',#146,4.7625);
#106=CIRCLE('',#149,4.45769999999999);
#107=CIRCLE('',#150,4.7625);
#108=CIRCLE('',#153,4.7625);
#109=CURVE_STYLE('',#114,POSITIVE_LENGTH_MEASURE(0.18),#113);
#110=CURVE_STYLE('',#115,POSITIVE_LENGTH_MEASURE(0.18),#137);
#111=CURVE_STYLE('',#116,POSITIVE_LENGTH_MEASURE(0.18),#137);
#112=CURVE_STYLE('',#117,POSITIVE_LENGTH_MEASURE(0.18),#137);
#113=DRAUGHTING_PRE_DEFINED_COLOUR('blue');
#114=DRAUGHTING_PRE_DEFINED_CURVE_FONT('continuous');
#115=DRAUGHTING_PRE_DEFINED_CURVE_FONT('continuous');
#116=DRAUGHTING_PRE_DEFINED_CURVE_FONT('continuous');
#117=DRAUGHTING_PRE_DEFINED_CURVE_FONT('continuous');
#118=B_SPLINE_CURVE_WITH_KNOTS('CUTTING PART LINE',3,(#190,#191,#192,#193,
#194,#195,#196,#197,#198,#199,#200,#201,#202),.UNSPECIFIED.,.T.,.F.,(4,
3,3,3,4),(0.,0.348441100804296,0.37246170538294,0.774806832075218,1.),
 .UNSPECIFIED.);
#119=PRESENTATION_LAYER_ASSIGNMENT('1','Layer 1',(#189,#118,#141,#142,#143,
#47,#48));
#120=STYLED_ITEM('',(#127),#189);
#121=STYLED_ITEM('',(#128),#118);
#122=STYLED_ITEM('',(#129),#141);
#123=STYLED_ITEM('',(#130),#142);
#124=STYLED_ITEM('',(#131),#143);
#125=STYLED_ITEM('',(#132),#47);
#126=STYLED_ITEM('',(#133),#48);
#127=PRESENTATION_STYLE_ASSIGNMENT((#134));
#128=PRESENTATION_STYLE_ASSIGNMENT((#109));
#129=PRESENTATION_STYLE_ASSIGNMENT((#110));
#130=PRESENTATION_STYLE_ASSIGNMENT((#111));
#131=PRESENTATION_STYLE_ASSIGNMENT((#112));
#132=PRESENTATION_STYLE_ASSIGNMENT((#37));
#133=PRESENTATION_STYLE_ASSIGNMENT((#38));
#134=POINT_STYLE('',#135,POSITIVE_LENGTH_MEASURE(3.),#136);
#135=PRE_DEFINED_POINT_MARKER_SYMBOL('plus');
#136=COLOUR_RGB('Medium Royal',0.301960784313725,0.427450980392157,0.701960784313725);
#137=COLOUR_RGB('Pale Maroon',0.811764705882353,0.603921568627451,0.611764705882353);
#138=COLOUR_RGB('light gray',0.8,0.8,0.8);
#139=COLOUR_RGB('medium gray',0.490196078431373,0.490196078431373,0.490196078431373);
#140=AXIS2_PLACEMENT_3D('',#188,#156,#157);
#141=AXIS2_PLACEMENT_3D('MCS',#203,#158,#159);
#142=AXIS2_PLACEMENT_3D('PCS',#204,#160,#161);
#143=AXIS2_PLACEMENT_3D('CIP',#205,#162,#163);
#144=AXIS2_PLACEMENT_3D('',#206,#164,#165);
#145=AXIS2_PLACEMENT_3D('',#208,#166,#167);
#146=AXIS2_PLACEMENT_3D('',#209,#168,#169);
#147=AXIS2_PLACEMENT_3D('',#211,#170,#171);
#148=AXIS2_PLACEMENT_3D('',#212,#172,#173);
#149=AXIS2_PLACEMENT_3D('',#213,#174,#175);
#150=AXIS2_PLACEMENT_3D('',#215,#176,#177);
#151=AXIS2_PLACEMENT_3D('',#217,#178,#179);
#152=AXIS2_PLACEMENT_3D('',#218,#180,#181);
#153=AXIS2_PLACEMENT_3D('',#219,#182,#183);
#154=AXIS2_PLACEMENT_3D('',#221,#184,#185);
#155=AXIS2_PLACEMENT_3D('',#222,#186,#187);
#156=DIRECTION('',(0.,0.,1.));
#157=DIRECTION('',(1.,0.,0.));
#158=DIRECTION('',(0.,0.,1.));
#159=DIRECTION('',(1.,0.,0.));
#160=DIRECTION('',(0.,0.,1.));
#161=DIRECTION('',(1.,0.,0.));
#162=DIRECTION('',(0.,0.,1.));
#163=DIRECTION('',(1.,0.,0.));
#164=DIRECTION('',(0.,0.,-1.));
#165=DIRECTION('',(-1.,0.,0.));
#166=DIRECTION('',(0.,0.,-1.));
#167=DIRECTION('',(-1.,0.,0.));
#168=DIRECTION('',(0.,0.,1.));
#169=DIRECTION('',(-1.,0.,0.));
#170=DIRECTION('',(0.,0.,1.));
#171=DIRECTION('',(1.,0.,0.));
#172=DIRECTION('',(0.,0.,-1.));
#173=DIRECTION('',(-1.,0.,0.));
#174=DIRECTION('',(0.,0.,-1.));
#175=DIRECTION('',(-1.,0.,0.));
#176=DIRECTION('',(0.,0.,-1.));
#177=DIRECTION('',(-1.,0.,0.));
#178=DIRECTION('',(0.,0.,-1.));
#179=DIRECTION('',(-1.,0.,-1.03590060893603E-16));
#180=DIRECTION('',(0.,0.,1.));
#181=DIRECTION('',(1.,0.,0.));
#182=DIRECTION('',(0.,0.,-1.));
#183=DIRECTION('',(-1.,0.,0.));
#184=DIRECTION('',(0.,0.,-1.));
#185=DIRECTION('',(-1.,0.,0.));
#186=DIRECTION('',(0.,0.,-1.));
#187=DIRECTION('',(-1.,0.,0.));
#188=CARTESIAN_POINT('',(0.,0.,0.));
#189=CARTESIAN_POINT('CRP',(-0.508,0.,-63.5));
#190=CARTESIAN_POINT('',(0.,0.,-56.1309898391982));
#191=CARTESIAN_POINT('',(0.,0.,-58.5873265594655));
#192=CARTESIAN_POINT('',(0.,0.,-61.0436632797327));
#193=CARTESIAN_POINT('',(0.,0.,-63.5));
#194=CARTESIAN_POINT('',(-0.169333333333335,0.,-63.5));
#195=CARTESIAN_POINT('',(-0.33866666666667,0.,-63.5));
#196=CARTESIAN_POINT('',(-0.508000000000005,0.,-63.5));
#197=CARTESIAN_POINT('',(-1.92616666666667,0.,-61.0436632797327));
#198=CARTESIAN_POINT('',(-3.34433333333333,0.,-58.5873265594655));
#199=CARTESIAN_POINT('',(-4.7625,0.,-56.1309898391982));
#200=CARTESIAN_POINT('',(-3.175,0.,-56.1309898391982));
#201=CARTESIAN_POINT('',(-1.5875,0.,-56.1309898391982));
#202=CARTESIAN_POINT('',(0.,0.,-56.1309898391982));
#203=CARTESIAN_POINT('',(0.,0.,-39.69004));
#204=CARTESIAN_POINT('',(0.,0.,0.));
#205=CARTESIAN_POINT('',(0.,0.,-63.5));
#206=CARTESIAN_POINT('',(0.,0.,-63.5));
#207=CARTESIAN_POINT('',(-0.508000000000004,0.,-63.5));
#208=CARTESIAN_POINT('',(-2.22044604925031E-15,0.,-63.5));
#209=CARTESIAN_POINT('',(0.,0.,-56.1309898391982));
#210=CARTESIAN_POINT('',(-4.7625,0.,-56.1309898391982));
#211=CARTESIAN_POINT('',(0.,0.,-63.5));
#212=CARTESIAN_POINT('',(0.,0.,-56.1309898391982));
#213=CARTESIAN_POINT('',(0.,0.,0.));
#214=CARTESIAN_POINT('',(-4.45769999999999,0.,0.));
#215=CARTESIAN_POINT('',(0.,0.,-0.304800000000001));
#216=CARTESIAN_POINT('',(-4.7625,0.,-0.304800000000001));
#217=CARTESIAN_POINT('',(0.,0.,-0.304800000000001));
#218=CARTESIAN_POINT('',(4.45769999999999,0.,6.1970449669217E-17));
#219=CARTESIAN_POINT('',(0.,0.,-56.1309898391982));
#220=CARTESIAN_POINT('',(-4.7625,0.,-56.1309898391982));
#221=CARTESIAN_POINT('',(0.,0.,-39.69004));
#222=CARTESIAN_POINT('',(0.,0.,-56.1309898391982));
#223=MECHANICAL_DESIGN_GEOMETRIC_PRESENTATION_REPRESENTATION('',(#120,#121,
#122,#123,#124,#125,#126),#224);
#224=(
GEOMETRIC_REPRESENTATION_CONTEXT(3)
GLOBAL_UNCERTAINTY_ASSIGNED_CONTEXT((#225))
GLOBAL_UNIT_ASSIGNED_CONTEXT((#231,#227,#226))
REPRESENTATION_CONTEXT('C5041-.375N1S','TOP_LEVEL_ASSEMBLY_PART')
);
#225=UNCERTAINTY_MEASURE_WITH_UNIT(LENGTH_MEASURE(2.E-5),#231,
'DISTANCE_ACCURACY_VALUE','Maximum Tolerance applied to model');
#226=(
NAMED_UNIT(*)
SI_UNIT($,.STERADIAN.)
SOLID_ANGLE_UNIT()
);
#227=(
CONVERSION_BASED_UNIT('DEGREE',#229)
NAMED_UNIT(#228)
PLANE_ANGLE_UNIT()
);
#228=DIMENSIONAL_EXPONENTS(0.,0.,0.,0.,0.,0.,0.);
#229=PLANE_ANGLE_MEASURE_WITH_UNIT(PLANE_ANGLE_MEASURE(0.0174532925),#230);
#230=(
NAMED_UNIT(*)
PLANE_ANGLE_UNIT()
SI_UNIT($,.RADIAN.)
);
#231=(
LENGTH_UNIT()
NAMED_UNIT(*)
SI_UNIT(.MILLI.,.METRE.)
);
ENDSEC;
END-ISO-10303-21;
