ISO-10303-21;
HEADER;
/* Generated by software containing ST-Developer
 * from STEP Tools, Inc. (www.steptools.com) 
 */
/* OPTION: using custom schema-name function */

FILE_DESCRIPTION(
/* description */ (''),
/* implementation_level */ '2;1');

FILE_NAME(
/* name */ 'C5141-.016F2S.0Z4_Basic.stp',
/* time_stamp */ '2024-07-05T13:41:09+05:00',
/* author */ (''),
/* organization */ (''),
/* preprocessor_version */ 'ST-DEVELOPER v18.102',
/* originating_system */ 'SIEMENS PLM Software NX2206.8101',
/* authorisation */ '');

FILE_SCHEMA (('AUTOMOTIVE_DESIGN { 1 0 10303 214 3 1 1 1 }'));
ENDSEC;

DATA;
#10=CONSTRUCTIVE_GEOMETRY_REPRESENTATION_RELATIONSHIP(
'supplemental geometry','',#34,#11);
#11=CONSTRUCTIVE_GEOMETRY_REPRESENTATION('supplemental geometry',(#152,
#153,#154),#259);
#12=GEOMETRICALLY_BOUNDED_WIREFRAME_SHAPE_REPRESENTATION(
'inpu692C5A6E56lu-None',(#35),#259);
#13=PROPERTY_DEFINITION_REPRESENTATION(#17,#15);
#14=PROPERTY_DEFINITION_REPRESENTATION(#18,#16);
#15=REPRESENTATION('',(#19),#259);
#16=REPRESENTATION('',(#20),#259);
#17=PROPERTY_DEFINITION('pmi validation property','',#25);
#18=PROPERTY_DEFINITION('pmi validation property','',#25);
#19=VALUE_REPRESENTATION_ITEM('number of annotations',COUNT_MEASURE(0.));
#20=VALUE_REPRESENTATION_ITEM('number of views',COUNT_MEASURE(0.));
#21=SHAPE_REPRESENTATION_RELATIONSHIP('None',
'relationship between inpu692C5A6E56lu-None and inpu692C5A6E56lu-None',
#34,#23);
#22=SHAPE_REPRESENTATION_RELATIONSHIP('None',
'relationship between inpu692C5A6E56lu-None and inpu692C5A6E56lu-None',
#34,#12);
#23=ADVANCED_BREP_SHAPE_REPRESENTATION('inpu692C5A6E56lu-None',(#46,#47),
#259);
#24=SHAPE_DEFINITION_REPRESENTATION(#25,#34);
#25=PRODUCT_DEFINITION_SHAPE('','',#26);
#26=PRODUCT_DEFINITION(' ','',#28,#27);
#27=PRODUCT_DEFINITION_CONTEXT('part definition',#33,'design');
#28=PRODUCT_DEFINITION_FORMATION_WITH_SPECIFIED_SOURCE(' ',' ',#30,
 .NOT_KNOWN.);
#29=PRODUCT_RELATED_PRODUCT_CATEGORY('part','',(#30));
#30=PRODUCT('inpu692C5A6E56lu','inpu692C5A6E56lu',' ',(#31));
#31=PRODUCT_CONTEXT(' ',#33,'mechanical');
#32=APPLICATION_PROTOCOL_DEFINITION('international standard',
'automotive_design',2010,#33);
#33=APPLICATION_CONTEXT(
'core data for automotive mechanical design processes');
#34=SHAPE_REPRESENTATION('inpu692C5A6E56lu-None',(#151),#259);
#35=GEOMETRIC_CURVE_SET('None',(#200,#127));
#36=SURFACE_STYLE_USAGE(.BOTH.,#38);
#37=SURFACE_STYLE_USAGE(.BOTH.,#39);
#38=SURFACE_SIDE_STYLE('',(#40));
#39=SURFACE_SIDE_STYLE('',(#41));
#40=SURFACE_STYLE_FILL_AREA(#42);
#41=SURFACE_STYLE_FILL_AREA(#43);
#42=FILL_AREA_STYLE('',(#44));
#43=FILL_AREA_STYLE('',(#45));
#44=FILL_AREA_STYLE_COLOUR('',#149);
#45=FILL_AREA_STYLE_COLOUR('',#150);
#46=MANIFOLD_SOLID_BREP('NOCUT',#48);
#47=MANIFOLD_SOLID_BREP('CUT',#49);
#48=CLOSED_SHELL('',(#62,#63,#64,#65,#66));
#49=CLOSED_SHELL('',(#67,#68,#69));
#50=CYLINDRICAL_SURFACE('',#160,1.5875);
#51=CONICAL_SURFACE('',#158,0.198437500000011,16.);
#52=CONICAL_SURFACE('',#161,1.5875,45.);
#53=CONICAL_SURFACE('',#165,0.198437499999999,0.00500000000000079);
#54=FACE_BOUND('',#79,.T.);
#55=FACE_BOUND('',#80,.T.);
#56=FACE_BOUND('',#81,.T.);
#57=FACE_BOUND('',#82,.T.);
#58=FACE_BOUND('',#83,.T.);
#59=FACE_BOUND('',#84,.T.);
#60=FACE_BOUND('',#87,.T.);
#61=FACE_BOUND('',#88,.T.);
#62=ADVANCED_FACE('',(#74),#70,.T.);
#63=ADVANCED_FACE('',(#54,#55),#51,.T.);
#64=ADVANCED_FACE('',(#56,#57),#50,.T.);
#65=ADVANCED_FACE('',(#58,#59),#52,.T.);
#66=ADVANCED_FACE('',(#75),#71,.T.);
#67=ADVANCED_FACE('',(#76),#72,.T.);
#68=ADVANCED_FACE('',(#60,#61),#53,.T.);
#69=ADVANCED_FACE('',(#77),#73,.F.);
#70=PLANE('',#156);
#71=PLANE('',#162);
#72=PLANE('',#164);
#73=PLANE('',#166);
#74=FACE_OUTER_BOUND('',#78,.T.);
#75=FACE_OUTER_BOUND('',#85,.T.);
#76=FACE_OUTER_BOUND('',#86,.T.);
#77=FACE_OUTER_BOUND('',#89,.T.);
#78=EDGE_LOOP('',(#90));
#79=EDGE_LOOP('',(#91));
#80=EDGE_LOOP('',(#92));
#81=EDGE_LOOP('',(#93));
#82=EDGE_LOOP('',(#94));
#83=EDGE_LOOP('',(#95));
#84=EDGE_LOOP('',(#96));
#85=EDGE_LOOP('',(#97));
#86=EDGE_LOOP('',(#98));
#87=EDGE_LOOP('',(#99));
#88=EDGE_LOOP('',(#100));
#89=EDGE_LOOP('',(#101));
#90=ORIENTED_EDGE('',*,*,#108,.F.);
#91=ORIENTED_EDGE('',*,*,#109,.T.);
#92=ORIENTED_EDGE('',*,*,#110,.F.);
#93=ORIENTED_EDGE('',*,*,#111,.T.);
#94=ORIENTED_EDGE('',*,*,#109,.F.);
#95=ORIENTED_EDGE('',*,*,#108,.T.);
#96=ORIENTED_EDGE('',*,*,#111,.F.);
#97=ORIENTED_EDGE('',*,*,#110,.T.);
#98=ORIENTED_EDGE('',*,*,#112,.T.);
#99=ORIENTED_EDGE('',*,*,#113,.T.);
#100=ORIENTED_EDGE('',*,*,#112,.F.);
#101=ORIENTED_EDGE('',*,*,#113,.F.);
#102=VERTEX_POINT('',#218);
#103=VERTEX_POINT('',#221);
#104=VERTEX_POINT('',#235);
#105=VERTEX_POINT('',#238);
#106=VERTEX_POINT('',#243);
#107=VERTEX_POINT('',#255);
#108=EDGE_CURVE('',#102,#102,#114,.T.);
#109=EDGE_CURVE('',#103,#103,#115,.T.);
#110=EDGE_CURVE('',#104,#104,#128,.T.);
#111=EDGE_CURVE('',#105,#105,#116,.T.);
#112=EDGE_CURVE('',#106,#106,#117,.T.);
#113=EDGE_CURVE('',#107,#107,#129,.T.);
#114=CIRCLE('',#155,1.2827);
#115=CIRCLE('',#157,1.5875);
#116=CIRCLE('',#159,1.5875);
#117=CIRCLE('',#163,0.198437499999999);
#118=CURVE_STYLE('',#123,POSITIVE_LENGTH_MEASURE(0.18),#122);
#119=CURVE_STYLE('',#124,POSITIVE_LENGTH_MEASURE(0.18),#148);
#120=CURVE_STYLE('',#125,POSITIVE_LENGTH_MEASURE(0.18),#148);
#121=CURVE_STYLE('',#126,POSITIVE_LENGTH_MEASURE(0.18),#148);
#122=DRAUGHTING_PRE_DEFINED_COLOUR('blue');
#123=DRAUGHTING_PRE_DEFINED_CURVE_FONT('continuous');
#124=DRAUGHTING_PRE_DEFINED_CURVE_FONT('continuous');
#125=DRAUGHTING_PRE_DEFINED_CURVE_FONT('continuous');
#126=DRAUGHTING_PRE_DEFINED_CURVE_FONT('continuous');
#127=B_SPLINE_CURVE_WITH_KNOTS('CUTTING PART LINE',3,(#201,#202,#203,#204,
#205,#206,#207,#208,#209,#210,#211,#212,#213),.UNSPECIFIED.,.T.,.F.,(4,
3,3,3,4),(0.,0.400013962515711,0.500017453106842,0.900031417184812,1.),
 .UNSPECIFIED.);
#128=B_SPLINE_CURVE_WITH_KNOTS('',3,(#222,#223,#224,#225,#226,#227,#228,
#229,#230,#231,#232,#233,#234),.UNSPECIFIED.,.T.,.F.,(1,3,3,3,3,3,1),(-0.25,
0.,0.25,0.5,0.75,1.,1.25),.UNSPECIFIED.);
#129=B_SPLINE_CURVE_WITH_KNOTS('',3,(#245,#246,#247,#248,#249,#250,#251,
#252,#253,#254),.UNSPECIFIED.,.T.,.F.,(2,2,2,2,2,2,2),(-0.25,0.,0.25,0.5,
0.75,1.,1.25),.UNSPECIFIED.);
#130=PRESENTATION_LAYER_ASSIGNMENT('1','Layer 1',(#200,#127,#152,#153,#154,
#46,#47));
#131=STYLED_ITEM('',(#138),#200);
#132=STYLED_ITEM('',(#139),#127);
#133=STYLED_ITEM('',(#140),#152);
#134=STYLED_ITEM('',(#141),#153);
#135=STYLED_ITEM('',(#142),#154);
#136=STYLED_ITEM('',(#143),#46);
#137=STYLED_ITEM('',(#144),#47);
#138=PRESENTATION_STYLE_ASSIGNMENT((#145));
#139=PRESENTATION_STYLE_ASSIGNMENT((#118));
#140=PRESENTATION_STYLE_ASSIGNMENT((#119));
#141=PRESENTATION_STYLE_ASSIGNMENT((#120));
#142=PRESENTATION_STYLE_ASSIGNMENT((#121));
#143=PRESENTATION_STYLE_ASSIGNMENT((#36));
#144=PRESENTATION_STYLE_ASSIGNMENT((#37));
#145=POINT_STYLE('',#146,POSITIVE_LENGTH_MEASURE(3.),#147);
#146=PRE_DEFINED_POINT_MARKER_SYMBOL('plus');
#147=COLOUR_RGB('Medium Royal',0.301960784313725,0.427450980392157,0.701960784313725);
#148=COLOUR_RGB('Pale Maroon',0.811764705882353,0.603921568627451,0.611764705882353);
#149=COLOUR_RGB('medium gray',0.490196078431373,0.490196078431373,0.490196078431373);
#150=COLOUR_RGB('light gray',0.8,0.8,0.8);
#151=AXIS2_PLACEMENT_3D('',#199,#167,#168);
#152=AXIS2_PLACEMENT_3D('MCS',#214,#169,#170);
#153=AXIS2_PLACEMENT_3D('CIP',#215,#171,#172);
#154=AXIS2_PLACEMENT_3D('PCS',#216,#173,#174);
#155=AXIS2_PLACEMENT_3D('',#217,#175,#176);
#156=AXIS2_PLACEMENT_3D('',#219,#177,#178);
#157=AXIS2_PLACEMENT_3D('',#220,#179,#180);
#158=AXIS2_PLACEMENT_3D('',#236,#181,#182);
#159=AXIS2_PLACEMENT_3D('',#237,#183,#184);
#160=AXIS2_PLACEMENT_3D('',#239,#185,#186);
#161=AXIS2_PLACEMENT_3D('',#240,#187,#188);
#162=AXIS2_PLACEMENT_3D('',#241,#189,#190);
#163=AXIS2_PLACEMENT_3D('',#242,#191,#192);
#164=AXIS2_PLACEMENT_3D('',#244,#193,#194);
#165=AXIS2_PLACEMENT_3D('',#256,#195,#196);
#166=AXIS2_PLACEMENT_3D('',#257,#197,#198);
#167=DIRECTION('',(0.,0.,1.));
#168=DIRECTION('',(1.,0.,0.));
#169=DIRECTION('',(0.,0.,1.));
#170=DIRECTION('',(1.,0.,0.));
#171=DIRECTION('',(0.,0.,1.));
#172=DIRECTION('',(1.,0.,0.));
#173=DIRECTION('',(0.,0.,1.));
#174=DIRECTION('',(1.,0.,0.));
#175=DIRECTION('',(0.,0.,-1.));
#176=DIRECTION('',(-1.,0.,0.));
#177=DIRECTION('',(0.,0.,1.));
#178=DIRECTION('',(1.,0.,0.));
#179=DIRECTION('',(0.,0.,-1.));
#180=DIRECTION('',(-1.,0.,0.));
#181=DIRECTION('',(0.,0.,1.));
#182=DIRECTION('',(1.,0.,2.41820640190214E-17));
#183=DIRECTION('',(0.,0.,-1.));
#184=DIRECTION('',(-1.,0.,0.));
#185=DIRECTION('',(0.,0.,-1.));
#186=DIRECTION('',(-1.,0.,0.));
#187=DIRECTION('',(0.,0.,-1.));
#188=DIRECTION('',(-1.,0.,-1.03918438038223E-16));
#189=DIRECTION('',(0.,0.,-1.));
#190=DIRECTION('',(-1.,0.,0.));
#191=DIRECTION('',(0.,0.,-1.));
#192=DIRECTION('',(-1.,0.,0.));
#193=DIRECTION('',(0.,0.,-1.));
#194=DIRECTION('',(-1.,0.,0.));
#195=DIRECTION('',(0.,0.,-1.));
#196=DIRECTION('',(-1.,0.,-9.7148024625034E-14));
#197=DIRECTION('',(0.,0.,-1.));
#198=DIRECTION('',(-1.,0.,0.));
#199=CARTESIAN_POINT('',(0.,0.,0.));
#200=CARTESIAN_POINT('CRP',(-0.1984375,0.,-38.1));
#201=CARTESIAN_POINT('',(0.,0.,-37.30625));
#202=CARTESIAN_POINT('',(0.,0.,-37.5708333333333));
#203=CARTESIAN_POINT('',(0.,0.,-37.8354166666667));
#204=CARTESIAN_POINT('',(0.,0.,-38.1));
#205=CARTESIAN_POINT('',(-0.0661458333333333,0.,-38.1));
#206=CARTESIAN_POINT('',(-0.132291666666667,0.,-38.1));
#207=CARTESIAN_POINT('',(-0.1984375,0.,-38.1));
#208=CARTESIAN_POINT('',(-0.198414410748378,0.,-37.8354166666667));
#209=CARTESIAN_POINT('',(-0.198391321496757,0.,-37.5708333333333));
#210=CARTESIAN_POINT('',(-0.198368232245135,0.,-37.30625));
#211=CARTESIAN_POINT('',(-0.132245488163424,0.,-37.30625));
#212=CARTESIAN_POINT('',(-0.0661227440817118,0.,-37.30625));
#213=CARTESIAN_POINT('',(0.,0.,-37.30625));
#214=CARTESIAN_POINT('',(0.,0.,-27.999944));
#215=CARTESIAN_POINT('',(0.,0.,-38.1));
#216=CARTESIAN_POINT('',(0.,0.,0.));
#217=CARTESIAN_POINT('',(0.,0.,0.));
#218=CARTESIAN_POINT('',(-1.2827,0.,0.));
#219=CARTESIAN_POINT('',(1.2827,0.,1.36312540826705E-16));
#220=CARTESIAN_POINT('',(0.,0.,-32.4620133741023));
#221=CARTESIAN_POINT('',(-1.5875,0.,-32.4620133741023));
#222=CARTESIAN_POINT('',(-0.198437500000007,0.,-37.30625));
#223=CARTESIAN_POINT('',(-0.198437500000007,0.10601507758243,-37.30625));
#224=CARTESIAN_POINT('',(-0.10379032665477,0.198725171563279,-37.30625));
#225=CARTESIAN_POINT('',(0.,0.198437500000007,-37.30625));
#226=CARTESIAN_POINT('',(0.10379032665477,0.198149828436736,-37.30625));
#227=CARTESIAN_POINT('',(0.198725171563279,0.10379032665477,-37.30625));
#228=CARTESIAN_POINT('',(0.198437500000007,2.43015849205812E-17,-37.30625));
#229=CARTESIAN_POINT('',(0.198149828436736,-0.10379032665477,-37.30625));
#230=CARTESIAN_POINT('',(0.103790326654768,-0.198725171563279,-37.30625));
#231=CARTESIAN_POINT('',(2.71050543121376E-17,-0.198437500000007,-37.30625));
#232=CARTESIAN_POINT('',(-0.103790326654768,-0.198149828436736,-37.30625));
#233=CARTESIAN_POINT('',(-0.198437500000007,-0.104490308416737,-37.30625));
#234=CARTESIAN_POINT('',(-0.198437500000007,0.,-37.30625));
#235=CARTESIAN_POINT('',(-0.198437500000009,1.21507924602908E-17,-37.30625));
#236=CARTESIAN_POINT('',(0.,0.,-37.30625));
#237=CARTESIAN_POINT('',(0.,0.,-0.304800000000001));
#238=CARTESIAN_POINT('',(-1.5875,0.,-0.304800000000001));
#239=CARTESIAN_POINT('',(0.,0.,-27.999944));
#240=CARTESIAN_POINT('',(0.,0.,-0.304800000000001));
#241=CARTESIAN_POINT('',(0.,0.,-37.30625));
#242=CARTESIAN_POINT('',(0.,0.,-38.1));
#243=CARTESIAN_POINT('',(-0.198437499999999,0.,-38.1));
#244=CARTESIAN_POINT('',(-5.32907051820075E-15,0.,-38.1));
#245=CARTESIAN_POINT('',(0.198368232245135,0.103865363521151,-37.30625));
#246=CARTESIAN_POINT('',(0.198368232245135,-0.103865363521151,-37.30625));
#247=CARTESIAN_POINT('',(0.103865363521151,-0.198368232245135,-37.30625));
#248=CARTESIAN_POINT('',(-0.103865363521151,-0.198368232245135,-37.30625));
#249=CARTESIAN_POINT('',(-0.198368232245135,-0.103865363521151,-37.30625));
#250=CARTESIAN_POINT('',(-0.198368232245135,0.103865363521151,-37.30625));
#251=CARTESIAN_POINT('',(-0.103865363521151,0.198368232245135,-37.30625));
#252=CARTESIAN_POINT('',(0.103865363521151,0.198368232245135,-37.30625));
#253=CARTESIAN_POINT('',(0.198368232245135,0.103865363521151,-37.30625));
#254=CARTESIAN_POINT('',(0.198368232245135,-0.103865363521151,-37.30625));
#255=CARTESIAN_POINT('',(0.198402865848852,-9.87401184991296E-8,-37.30625));
#256=CARTESIAN_POINT('',(0.,0.,-38.1));
#257=CARTESIAN_POINT('',(0.,0.,-37.30625));
#258=MECHANICAL_DESIGN_GEOMETRIC_PRESENTATION_REPRESENTATION('',(#131,#132,
#133,#134,#135,#136,#137),#259);
#259=(
GEOMETRIC_REPRESENTATION_CONTEXT(3)
GLOBAL_UNCERTAINTY_ASSIGNED_CONTEXT((#260))
GLOBAL_UNIT_ASSIGNED_CONTEXT((#266,#262,#261))
REPRESENTATION_CONTEXT('C5141-.016F2S','TOP_LEVEL_ASSEMBLY_PART')
);
#260=UNCERTAINTY_MEASURE_WITH_UNIT(LENGTH_MEASURE(0.0508),#266,
'DISTANCE_ACCURACY_VALUE','Maximum Tolerance applied to model');
#261=(
NAMED_UNIT(*)
SI_UNIT($,.STERADIAN.)
SOLID_ANGLE_UNIT()
);
#262=(
CONVERSION_BASED_UNIT('DEGREE',#264)
NAMED_UNIT(#263)
PLANE_ANGLE_UNIT()
);
#263=DIMENSIONAL_EXPONENTS(0.,0.,0.,0.,0.,0.,0.);
#264=PLANE_ANGLE_MEASURE_WITH_UNIT(PLANE_ANGLE_MEASURE(0.0174532925),#265);
#265=(
NAMED_UNIT(*)
PLANE_ANGLE_UNIT()
SI_UNIT($,.RADIAN.)
);
#266=(
LENGTH_UNIT()
NAMED_UNIT(*)
SI_UNIT(.MILLI.,.METRE.)
);
ENDSEC;
END-ISO-10303-21;
