ISO-10303-21;
HEADER;
/* Generated by software containing ST-Developer
 * from STEP Tools, Inc. (www.steptools.com) 
 */
/* OPTION: using custom schema-name function */

FILE_DESCRIPTION(
/* description */ (''),
/* implementation_level */ '2;1');

FILE_NAME(
/* name */ 'C5141-.125D4R015.0Z4_Basic.stp',
/* time_stamp */ '2024-07-04T16:54:30+05:00',
/* author */ (''),
/* organization */ (''),
/* preprocessor_version */ 'ST-DEVELOPER v16.7',
/* originating_system */ 'SIEMENS PLM Software NX 12.0',
/* authorisation */ '');

FILE_SCHEMA (('AUTOMOTIVE_DESIGN { 1 0 10303 214 3 1 1 1 }'));
ENDSEC;

DATA;
#10=CONSTRUCTIVE_GEOMETRY_REPRESENTATION_RELATIONSHIP(
'supplemental geometry','',#34,#11);
#11=CONSTRUCTIVE_GEOMETRY_REPRESENTATION('supplemental geometry',(#176,
#177,#178),#283);
#12=GEOMETRICALLY_BOUNDED_WIREFRAME_SHAPE_REPRESENTATION(
'inpu166083BB2y50-None',(#35),#283);
#13=PROPERTY_DEFINITION_REPRESENTATION(#17,#15);
#14=PROPERTY_DEFINITION_REPRESENTATION(#18,#16);
#15=REPRESENTATION('',(#19),#283);
#16=REPRESENTATION('',(#20),#283);
#17=PROPERTY_DEFINITION('pmi validation property','',#25);
#18=PROPERTY_DEFINITION('pmi validation property','',#25);
#19=VALUE_REPRESENTATION_ITEM('number of annotations',COUNT_MEASURE(0.));
#20=VALUE_REPRESENTATION_ITEM('number of views',COUNT_MEASURE(0.));
#21=SHAPE_REPRESENTATION_RELATIONSHIP('None',
'relationship between inpu166083BB2y50-None and inpu166083BB2y50-None',
#34,#23);
#22=SHAPE_REPRESENTATION_RELATIONSHIP('None',
'relationship between inpu166083BB2y50-None and inpu166083BB2y50-None',
#34,#12);
#23=ADVANCED_BREP_SHAPE_REPRESENTATION('inpu166083BB2y50-None',(#47,#48),
#283);
#24=SHAPE_DEFINITION_REPRESENTATION(#25,#34);
#25=PRODUCT_DEFINITION_SHAPE('','',#26);
#26=PRODUCT_DEFINITION(' ','',#28,#27);
#27=PRODUCT_DEFINITION_CONTEXT('part definition',#33,'design');
#28=PRODUCT_DEFINITION_FORMATION_WITH_SPECIFIED_SOURCE(' ',' ',#30,
 .NOT_KNOWN.);
#29=PRODUCT_RELATED_PRODUCT_CATEGORY('part','',(#30));
#30=PRODUCT('inpu166083BB2y50','inpu166083BB2y50',' ',(#31));
#31=PRODUCT_CONTEXT(' ',#33,'mechanical');
#32=APPLICATION_PROTOCOL_DEFINITION('international standard',
'automotive_design',2010,#33);
#33=APPLICATION_CONTEXT(
'core data for automotive mechanical design processes');
#34=SHAPE_REPRESENTATION('inpu166083BB2y50-None',(#175),#283);
#35=GEOMETRIC_CURVE_SET('None',(#236,#237,#238,#239,#140));
#36=TOROIDAL_SURFACE('',#191,1.2065,0.381);
#37=SURFACE_STYLE_USAGE(.BOTH.,#39);
#38=SURFACE_STYLE_USAGE(.BOTH.,#40);
#39=SURFACE_SIDE_STYLE('',(#41));
#40=SURFACE_SIDE_STYLE('',(#42));
#41=SURFACE_STYLE_FILL_AREA(#43);
#42=SURFACE_STYLE_FILL_AREA(#44);
#43=FILL_AREA_STYLE('',(#45));
#44=FILL_AREA_STYLE('',(#46));
#45=FILL_AREA_STYLE_COLOUR('',#173);
#46=FILL_AREA_STYLE_COLOUR('',#174);
#47=MANIFOLD_SOLID_BREP('NOCUT',#49);
#48=MANIFOLD_SOLID_BREP('CUT',#50);
#49=CLOSED_SHELL('',(#61,#62,#63,#64,#65));
#50=CLOSED_SHELL('',(#66,#67,#68,#69));
#51=CYLINDRICAL_SURFACE('',#186,1.5875);
#52=PLANE('',#182);
#53=PLANE('',#185);
#54=PLANE('',#187);
#55=PLANE('',#189);
#56=PLANE('',#194);
#57=FACE_OUTER_BOUND('',#84,.T.);
#58=FACE_OUTER_BOUND('',#89,.T.);
#59=FACE_OUTER_BOUND('',#90,.T.);
#60=FACE_OUTER_BOUND('',#95,.T.);
#61=ADVANCED_FACE('',(#72,#73),#70,.T.);
#62=ADVANCED_FACE('',(#57),#52,.T.);
#63=ADVANCED_FACE('',(#74,#75),#53,.T.);
#64=ADVANCED_FACE('',(#76,#77),#51,.T.);
#65=ADVANCED_FACE('',(#58),#54,.T.);
#66=ADVANCED_FACE('',(#59),#55,.T.);
#67=ADVANCED_FACE('',(#78,#79),#36,.T.);
#68=ADVANCED_FACE('',(#80,#81),#71,.T.);
#69=ADVANCED_FACE('',(#60),#56,.F.);
#70=CONICAL_SURFACE('',#181,1.5875,45.);
#71=CONICAL_SURFACE('',#193,1.58749999854926,0.00500000000000206);
#72=FACE_BOUND('',#82,.T.);
#73=FACE_BOUND('',#83,.T.);
#74=FACE_BOUND('',#85,.T.);
#75=FACE_BOUND('',#86,.T.);
#76=FACE_BOUND('',#87,.T.);
#77=FACE_BOUND('',#88,.T.);
#78=FACE_BOUND('',#91,.T.);
#79=FACE_BOUND('',#92,.T.);
#80=FACE_BOUND('',#93,.T.);
#81=FACE_BOUND('',#94,.T.);
#82=EDGE_LOOP('',(#96));
#83=EDGE_LOOP('',(#97));
#84=EDGE_LOOP('',(#98));
#85=EDGE_LOOP('',(#99));
#86=EDGE_LOOP('',(#100));
#87=EDGE_LOOP('',(#101));
#88=EDGE_LOOP('',(#102));
#89=EDGE_LOOP('',(#103));
#90=EDGE_LOOP('',(#104));
#91=EDGE_LOOP('',(#105));
#92=EDGE_LOOP('',(#106));
#93=EDGE_LOOP('',(#107));
#94=EDGE_LOOP('',(#108));
#95=EDGE_LOOP('',(#109));
#96=ORIENTED_EDGE('',*,*,#117,.T.);
#97=ORIENTED_EDGE('',*,*,#118,.F.);
#98=ORIENTED_EDGE('',*,*,#117,.F.);
#99=ORIENTED_EDGE('',*,*,#119,.T.);
#100=ORIENTED_EDGE('',*,*,#120,.F.);
#101=ORIENTED_EDGE('',*,*,#118,.T.);
#102=ORIENTED_EDGE('',*,*,#119,.F.);
#103=ORIENTED_EDGE('',*,*,#120,.T.);
#104=ORIENTED_EDGE('',*,*,#121,.T.);
#105=ORIENTED_EDGE('',*,*,#122,.T.);
#106=ORIENTED_EDGE('',*,*,#121,.F.);
#107=ORIENTED_EDGE('',*,*,#123,.T.);
#108=ORIENTED_EDGE('',*,*,#122,.F.);
#109=ORIENTED_EDGE('',*,*,#123,.F.);
#110=VERTEX_POINT('',#260);
#111=VERTEX_POINT('',#262);
#112=VERTEX_POINT('',#266);
#113=VERTEX_POINT('',#268);
#114=VERTEX_POINT('',#273);
#115=VERTEX_POINT('',#276);
#116=VERTEX_POINT('',#279);
#117=EDGE_CURVE('',#110,#110,#124,.T.);
#118=EDGE_CURVE('',#111,#111,#125,.T.);
#119=EDGE_CURVE('',#112,#112,#126,.T.);
#120=EDGE_CURVE('',#113,#113,#127,.T.);
#121=EDGE_CURVE('',#114,#114,#128,.T.);
#122=EDGE_CURVE('',#115,#115,#129,.T.);
#123=EDGE_CURVE('',#116,#116,#130,.T.);
#124=CIRCLE('',#179,1.28269999999999);
#125=CIRCLE('',#180,1.5875);
#126=CIRCLE('',#183,1.5875);
#127=CIRCLE('',#184,1.58642496589524);
#128=CIRCLE('',#188,1.2065);
#129=CIRCLE('',#190,1.58749999854926);
#130=CIRCLE('',#192,1.58642496589524);
#131=CURVE_STYLE('',#136,POSITIVE_LENGTH_MEASURE(0.18),#135);
#132=CURVE_STYLE('',#137,POSITIVE_LENGTH_MEASURE(0.18),#172);
#133=CURVE_STYLE('',#138,POSITIVE_LENGTH_MEASURE(0.18),#172);
#134=CURVE_STYLE('',#139,POSITIVE_LENGTH_MEASURE(0.18),#172);
#135=DRAUGHTING_PRE_DEFINED_COLOUR('blue');
#136=DRAUGHTING_PRE_DEFINED_CURVE_FONT('continuous');
#137=DRAUGHTING_PRE_DEFINED_CURVE_FONT('continuous');
#138=DRAUGHTING_PRE_DEFINED_CURVE_FONT('continuous');
#139=DRAUGHTING_PRE_DEFINED_CURVE_FONT('continuous');
#140=TRIMMED_CURVE('CUTTING PART LINE',#141,(PARAMETER_VALUE(0.)),(
PARAMETER_VALUE(1.)),.T.,.PARAMETER.);
#141=(
BOUNDED_CURVE()
B_SPLINE_CURVE(3,(#240,#241,#242,#243,#244,#245,#246,#247,#248,#249,#250,
#251,#252,#253,#254,#255),.UNSPECIFIED.,.T.,.F.)
B_SPLINE_CURVE_WITH_KNOTS((1,3,3,3,3,3,3,1),(-0.05583958882724,0.,0.447019426312893,
0.489486271812953,0.510552736291893,0.94416041117276,1.,1.44701942631289),
 .UNSPECIFIED.)
CURVE()
GEOMETRIC_REPRESENTATION_ITEM()
RATIONAL_B_SPLINE_CURVE((1.,1.,1.,1.,1.,1.,1.,0.804717284773137,0.804717284773137,
1.,1.,1.,1.,1.,1.,1.))
REPRESENTATION_ITEM('CUTTING PART LINE')
);
#142=PRESENTATION_LAYER_ASSIGNMENT('1','Layer 1',(#236,#237,#238,#239,#140,
#176,#177,#178,#47,#48));
#143=STYLED_ITEM('',(#153),#236);
#144=STYLED_ITEM('',(#154),#237);
#145=STYLED_ITEM('',(#155),#238);
#146=STYLED_ITEM('',(#156),#239);
#147=STYLED_ITEM('',(#157),#140);
#148=STYLED_ITEM('',(#158),#176);
#149=STYLED_ITEM('',(#159),#177);
#150=STYLED_ITEM('',(#160),#178);
#151=STYLED_ITEM('',(#161),#47);
#152=STYLED_ITEM('',(#162),#48);
#153=PRESENTATION_STYLE_ASSIGNMENT((#163));
#154=PRESENTATION_STYLE_ASSIGNMENT((#164));
#155=PRESENTATION_STYLE_ASSIGNMENT((#165));
#156=PRESENTATION_STYLE_ASSIGNMENT((#166));
#157=PRESENTATION_STYLE_ASSIGNMENT((#131));
#158=PRESENTATION_STYLE_ASSIGNMENT((#132));
#159=PRESENTATION_STYLE_ASSIGNMENT((#133));
#160=PRESENTATION_STYLE_ASSIGNMENT((#134));
#161=PRESENTATION_STYLE_ASSIGNMENT((#37));
#162=PRESENTATION_STYLE_ASSIGNMENT((#38));
#163=POINT_STYLE('',#167,POSITIVE_LENGTH_MEASURE(3.),#171);
#164=POINT_STYLE('',#168,POSITIVE_LENGTH_MEASURE(3.),#172);
#165=POINT_STYLE('',#169,POSITIVE_LENGTH_MEASURE(3.),#172);
#166=POINT_STYLE('',#170,POSITIVE_LENGTH_MEASURE(3.),#172);
#167=PRE_DEFINED_POINT_MARKER_SYMBOL('plus');
#168=PRE_DEFINED_POINT_MARKER_SYMBOL('plus');
#169=PRE_DEFINED_POINT_MARKER_SYMBOL('plus');
#170=PRE_DEFINED_POINT_MARKER_SYMBOL('plus');
#171=COLOUR_RGB('Medium Royal',0.2,0.4,0.8);
#172=COLOUR_RGB('Pale Maroon',0.811749446860456,0.603921568627451,0.611749446860456);
#173=COLOUR_RGB('Medium Gray',0.490196078431373,0.490196078431373,0.490196078431373);
#174=COLOUR_RGB('Light Gray',0.8,0.8,0.8);
#175=AXIS2_PLACEMENT_3D('',#235,#195,#196);
#176=AXIS2_PLACEMENT_3D('MCS',#256,#197,#198);
#177=AXIS2_PLACEMENT_3D('CIP',#257,#199,#200);
#178=AXIS2_PLACEMENT_3D('PCS',#258,#201,#202);
#179=AXIS2_PLACEMENT_3D('',#259,#203,#204);
#180=AXIS2_PLACEMENT_3D('',#261,#205,#206);
#181=AXIS2_PLACEMENT_3D('',#263,#207,#208);
#182=AXIS2_PLACEMENT_3D('',#264,#209,#210);
#183=AXIS2_PLACEMENT_3D('',#265,#211,#212);
#184=AXIS2_PLACEMENT_3D('',#267,#213,#214);
#185=AXIS2_PLACEMENT_3D('',#269,#215,#216);
#186=AXIS2_PLACEMENT_3D('',#270,#217,#218);
#187=AXIS2_PLACEMENT_3D('',#271,#219,#220);
#188=AXIS2_PLACEMENT_3D('',#272,#221,#222);
#189=AXIS2_PLACEMENT_3D('',#274,#223,#224);
#190=AXIS2_PLACEMENT_3D('',#275,#225,#226);
#191=AXIS2_PLACEMENT_3D('',#277,#227,#228);
#192=AXIS2_PLACEMENT_3D('',#278,#229,#230);
#193=AXIS2_PLACEMENT_3D('',#280,#231,#232);
#194=AXIS2_PLACEMENT_3D('',#281,#233,#234);
#195=DIRECTION('',(0.,0.,1.));
#196=DIRECTION('',(1.,0.,0.));
#197=DIRECTION('',(0.,0.,1.));
#198=DIRECTION('',(1.,0.,0.));
#199=DIRECTION('',(0.,0.,1.));
#200=DIRECTION('',(1.,0.,0.));
#201=DIRECTION('',(0.,0.,1.));
#202=DIRECTION('',(1.,0.,0.));
#203=DIRECTION('',(0.,0.,-1.));
#204=DIRECTION('',(-1.,0.,0.));
#205=DIRECTION('',(0.,0.,-1.));
#206=DIRECTION('',(-1.,0.,0.));
#207=DIRECTION('',(0.,0.,-1.));
#208=DIRECTION('',(1.,0.,-1.03810189665266E-16));
#209=DIRECTION('',(0.,0.,1.));
#210=DIRECTION('',(-1.,0.,0.));
#211=DIRECTION('',(0.,0.,-1.));
#212=DIRECTION('',(-1.,0.,0.));
#213=DIRECTION('',(0.,0.,-1.));
#214=DIRECTION('',(-1.,0.,0.));
#215=DIRECTION('',(0.,0.,-1.));
#216=DIRECTION('',(1.,0.,0.));
#217=DIRECTION('',(0.,0.,-1.));
#218=DIRECTION('',(1.,0.,0.));
#219=DIRECTION('',(0.,0.,-1.));
#220=DIRECTION('',(1.,0.,0.));
#221=DIRECTION('',(0.,0.,-1.));
#222=DIRECTION('',(-1.,0.,0.));
#223=DIRECTION('',(0.,0.,-1.));
#224=DIRECTION('',(1.,0.,0.));
#225=DIRECTION('',(0.,0.,-1.));
#226=DIRECTION('',(-1.,0.,0.));
#227=DIRECTION('',(0.,0.,-1.));
#228=DIRECTION('',(1.,0.,0.));
#229=DIRECTION('',(0.,0.,-1.));
#230=DIRECTION('',(-1.,0.,0.));
#231=DIRECTION('',(0.,0.,-1.));
#232=DIRECTION('',(1.,0.,-5.8004812548732E-14));
#233=DIRECTION('',(0.,0.,-1.));
#234=DIRECTION('',(1.,0.,0.));
#235=CARTESIAN_POINT('',(0.,0.,0.));
#236=CARTESIAN_POINT('CRP',(-1.5875,0.,-38.1));
#237=CARTESIAN_POINT('',(0.,0.,-25.));
#238=CARTESIAN_POINT('',(0.,0.,-38.1));
#239=CARTESIAN_POINT('',(0.,0.,0.));
#240=CARTESIAN_POINT('',(0.,0.,-25.4));
#241=CARTESIAN_POINT('',(0.,0.,-29.6333333333333));
#242=CARTESIAN_POINT('',(0.,0.,-33.8666666666667));
#243=CARTESIAN_POINT('',(0.,0.,-38.1));
#244=CARTESIAN_POINT('',(-0.402166666666667,0.,-38.1));
#245=CARTESIAN_POINT('',(-0.804333333333333,0.,-38.1));
#246=CARTESIAN_POINT('',(-1.2065,0.,-38.1));
#247=CARTESIAN_POINT('',(-1.42970007585383,0.,-38.1));
#248=CARTESIAN_POINT('',(-1.5875194764303,0.,-37.9421668264817));
#249=CARTESIAN_POINT('',(-1.58749999854925,0.,-37.7189667514778));
#250=CARTESIAN_POINT('',(-1.58714165433126,0.,-33.6126445009852));
#251=CARTESIAN_POINT('',(-1.58678331011324,0.,-29.5063222504926));
#252=CARTESIAN_POINT('',(-1.58642496589524,0.,-25.4));
#253=CARTESIAN_POINT('',(-1.05761664393016,0.,-25.4));
#254=CARTESIAN_POINT('',(-0.52880832196508,0.,-25.4));
#255=CARTESIAN_POINT('',(0.,0.,-25.4));
#256=CARTESIAN_POINT('',(0.,0.,-25.));
#257=CARTESIAN_POINT('',(0.,0.,-38.1));
#258=CARTESIAN_POINT('',(0.,0.,0.));
#259=CARTESIAN_POINT('',(0.,0.,0.));
#260=CARTESIAN_POINT('',(-1.28269999999999,0.,0.));
#261=CARTESIAN_POINT('',(0.,0.,-0.304800000000001));
#262=CARTESIAN_POINT('',(-1.5875,0.,-0.304800000000001));
#263=CARTESIAN_POINT('',(0.,0.,-0.304800000000001));
#264=CARTESIAN_POINT('',(1.28269999999999,0.,5.85442146996192E-17));
#265=CARTESIAN_POINT('',(0.,0.,-25.4));
#266=CARTESIAN_POINT('',(-1.5875,0.,-25.4));
#267=CARTESIAN_POINT('',(0.,0.,-25.4));
#268=CARTESIAN_POINT('',(-1.58642496589524,0.,-25.4));
#269=CARTESIAN_POINT('',(1.58642496589524,0.,-25.4));
#270=CARTESIAN_POINT('',(0.,0.,-28.));
#271=CARTESIAN_POINT('',(0.,0.,-25.4));
#272=CARTESIAN_POINT('',(0.,0.,-38.1));
#273=CARTESIAN_POINT('',(-1.2065,0.,-38.1));
#274=CARTESIAN_POINT('',(-5.32907051820075E-15,0.,-38.1));
#275=CARTESIAN_POINT('',(0.,0.,-37.7189667514778));
#276=CARTESIAN_POINT('',(-1.58749999854926,0.,-37.7189667514778));
#277=CARTESIAN_POINT('',(0.,0.,-37.719));
#278=CARTESIAN_POINT('',(0.,0.,-25.4));
#279=CARTESIAN_POINT('',(-1.58642496589524,0.,-25.4));
#280=CARTESIAN_POINT('',(0.,0.,-37.7189667514778));
#281=CARTESIAN_POINT('',(0.,0.,-25.4));
#282=MECHANICAL_DESIGN_GEOMETRIC_PRESENTATION_REPRESENTATION('',(#143,#144,
#145,#146,#147,#148,#149,#150,#151,#152),#283);
#283=(
GEOMETRIC_REPRESENTATION_CONTEXT(3)
GLOBAL_UNCERTAINTY_ASSIGNED_CONTEXT((#284))
GLOBAL_UNIT_ASSIGNED_CONTEXT((#290,#286,#285))
REPRESENTATION_CONTEXT('C5141-.125D4R015','TOP_LEVEL_ASSEMBLY_PART')
);
#284=UNCERTAINTY_MEASURE_WITH_UNIT(LENGTH_MEASURE(2.E-5),#290,
'DISTANCE_ACCURACY_VALUE','Maximum Tolerance applied to model');
#285=(
NAMED_UNIT(*)
SI_UNIT($,.STERADIAN.)
SOLID_ANGLE_UNIT()
);
#286=(
CONVERSION_BASED_UNIT('DEGREE',#288)
NAMED_UNIT(#287)
PLANE_ANGLE_UNIT()
);
#287=DIMENSIONAL_EXPONENTS(0.,0.,0.,0.,0.,0.,0.);
#288=PLANE_ANGLE_MEASURE_WITH_UNIT(PLANE_ANGLE_MEASURE(0.0174532925),#289);
#289=(
NAMED_UNIT(*)
PLANE_ANGLE_UNIT()
SI_UNIT($,.RADIAN.)
);
#290=(
LENGTH_UNIT()
NAMED_UNIT(*)
SI_UNIT(.MILLI.,.METRE.)
);
ENDSEC;
END-ISO-10303-21;
