ISO-10303-21;
HEADER;
/* Generated by software containing ST-Developer
 * from STEP Tools, Inc. (www.steptools.com) 
 */
/* OPTION: using custom schema-name function */

FILE_DESCRIPTION(
/* description */ (''),
/* implementation_level */ '2;1');

FILE_NAME(
/* name */ 'C5141-.234XF2S.0DZ4_Basic.stp',
/* time_stamp */ '2024-07-19T08:49:44+05:00',
/* author */ (''),
/* organization */ (''),
/* preprocessor_version */ 'ST-DEVELOPER v18.102',
/* originating_system */ 'SIEMENS PLM Software NX2206.8101',
/* authorisation */ '');

FILE_SCHEMA (('AUTOMOTIVE_DESIGN { 1 0 10303 214 3 1 1 1 }'));
ENDSEC;

DATA;
#10=CONSTRUCTIVE_GEOMETRY_REPRESENTATION_RELATIONSHIP(
'supplemental geometry','',#34,#11);
#11=CONSTRUCTIVE_GEOMETRY_REPRESENTATION('supplemental geometry',(#196,
#197,#198),#319);
#12=GEOMETRICALLY_BOUNDED_WIREFRAME_SHAPE_REPRESENTATION(
'inpu1CC8EB6Cupnj-None',(#35),#319);
#13=PROPERTY_DEFINITION_REPRESENTATION(#17,#15);
#14=PROPERTY_DEFINITION_REPRESENTATION(#18,#16);
#15=REPRESENTATION('',(#19),#319);
#16=REPRESENTATION('',(#20),#319);
#17=PROPERTY_DEFINITION('pmi validation property','',#25);
#18=PROPERTY_DEFINITION('pmi validation property','',#25);
#19=VALUE_REPRESENTATION_ITEM('number of annotations',COUNT_MEASURE(0.));
#20=VALUE_REPRESENTATION_ITEM('number of views',COUNT_MEASURE(0.));
#21=SHAPE_REPRESENTATION_RELATIONSHIP('None',
'relationship between inpu1CC8EB6Cupnj-None and inpu1CC8EB6Cupnj-None',
#34,#23);
#22=SHAPE_REPRESENTATION_RELATIONSHIP('None',
'relationship between inpu1CC8EB6Cupnj-None and inpu1CC8EB6Cupnj-None',
#34,#12);
#23=ADVANCED_BREP_SHAPE_REPRESENTATION('inpu1CC8EB6Cupnj-None',(#52,#53,
#54),#319);
#24=SHAPE_DEFINITION_REPRESENTATION(#25,#34);
#25=PRODUCT_DEFINITION_SHAPE('','',#26);
#26=PRODUCT_DEFINITION(' ','',#28,#27);
#27=PRODUCT_DEFINITION_CONTEXT('part definition',#33,'design');
#28=PRODUCT_DEFINITION_FORMATION_WITH_SPECIFIED_SOURCE(' ',' ',#30,
 .NOT_KNOWN.);
#29=PRODUCT_RELATED_PRODUCT_CATEGORY('part','',(#30));
#30=PRODUCT('inpu1CC8EB6Cupnj','inpu1CC8EB6Cupnj',' ',(#31));
#31=PRODUCT_CONTEXT(' ',#33,'mechanical');
#32=APPLICATION_PROTOCOL_DEFINITION('international standard',
'automotive_design',2010,#33);
#33=APPLICATION_CONTEXT(
'core data for automotive mechanical design processes');
#34=SHAPE_REPRESENTATION('inpu1CC8EB6Cupnj-None',(#195),#319);
#35=GEOMETRIC_CURVE_SET('None',(#271,#171));
#36=CYLINDRICAL_SURFACE('',#214,3.175);
#37=SURFACE_STYLE_USAGE(.BOTH.,#40);
#38=SURFACE_STYLE_USAGE(.BOTH.,#41);
#39=SURFACE_STYLE_USAGE(.BOTH.,#42);
#40=SURFACE_SIDE_STYLE('',(#43));
#41=SURFACE_SIDE_STYLE('',(#44));
#42=SURFACE_SIDE_STYLE('',(#45));
#43=SURFACE_STYLE_FILL_AREA(#46);
#44=SURFACE_STYLE_FILL_AREA(#47);
#45=SURFACE_STYLE_FILL_AREA(#48);
#46=FILL_AREA_STYLE('',(#49));
#47=FILL_AREA_STYLE('',(#50));
#48=FILL_AREA_STYLE('',(#51));
#49=FILL_AREA_STYLE_COLOUR('',#193);
#50=FILL_AREA_STYLE_COLOUR('',#193);
#51=FILL_AREA_STYLE_COLOUR('',#194);
#52=MANIFOLD_SOLID_BREP('CUT',#55);
#53=MANIFOLD_SOLID_BREP('CUT',#56);
#54=MANIFOLD_SOLID_BREP('NOCUT',#57);
#55=CLOSED_SHELL('',(#74,#75,#76));
#56=CLOSED_SHELL('',(#77,#78,#79));
#57=CLOSED_SHELL('',(#80,#81,#82,#83,#84,#85));
#58=CONICAL_SURFACE('',#202,2.9765625,0.00500000000000472);
#59=CONICAL_SURFACE('',#207,2.97545421592218,0.00499999999997146);
#60=CONICAL_SURFACE('',#212,2.9765625,10.0000008420499);
#61=CONICAL_SURFACE('',#216,3.175,9.99999999999999);
#62=FACE_BOUND('',#100,.T.);
#63=FACE_BOUND('',#101,.T.);
#64=FACE_BOUND('',#104,.T.);
#65=FACE_BOUND('',#105,.T.);
#66=FACE_BOUND('',#108,.T.);
#67=FACE_BOUND('',#109,.T.);
#68=FACE_BOUND('',#110,.T.);
#69=FACE_BOUND('',#111,.T.);
#70=FACE_BOUND('',#112,.T.);
#71=FACE_BOUND('',#113,.T.);
#72=FACE_BOUND('',#114,.T.);
#73=FACE_BOUND('',#115,.T.);
#74=ADVANCED_FACE('',(#93),#86,.T.);
#75=ADVANCED_FACE('',(#62,#63),#58,.T.);
#76=ADVANCED_FACE('',(#94),#87,.T.);
#77=ADVANCED_FACE('',(#95),#88,.T.);
#78=ADVANCED_FACE('',(#64,#65),#59,.T.);
#79=ADVANCED_FACE('',(#96),#89,.F.);
#80=ADVANCED_FACE('',(#97),#90,.T.);
#81=ADVANCED_FACE('',(#66,#67),#60,.T.);
#82=ADVANCED_FACE('',(#68,#69),#36,.T.);
#83=ADVANCED_FACE('',(#70,#71),#61,.T.);
#84=ADVANCED_FACE('',(#72,#73),#91,.T.);
#85=ADVANCED_FACE('',(#98),#92,.T.);
#86=PLANE('',#200);
#87=PLANE('',#203);
#88=PLANE('',#205);
#89=PLANE('',#208);
#90=PLANE('',#210);
#91=PLANE('',#218);
#92=PLANE('',#219);
#93=FACE_OUTER_BOUND('',#99,.T.);
#94=FACE_OUTER_BOUND('',#102,.T.);
#95=FACE_OUTER_BOUND('',#103,.T.);
#96=FACE_OUTER_BOUND('',#106,.T.);
#97=FACE_OUTER_BOUND('',#107,.T.);
#98=FACE_OUTER_BOUND('',#116,.T.);
#99=EDGE_LOOP('',(#117));
#100=EDGE_LOOP('',(#118));
#101=EDGE_LOOP('',(#119));
#102=EDGE_LOOP('',(#120));
#103=EDGE_LOOP('',(#121));
#104=EDGE_LOOP('',(#122));
#105=EDGE_LOOP('',(#123));
#106=EDGE_LOOP('',(#124));
#107=EDGE_LOOP('',(#125));
#108=EDGE_LOOP('',(#126));
#109=EDGE_LOOP('',(#127));
#110=EDGE_LOOP('',(#128));
#111=EDGE_LOOP('',(#129));
#112=EDGE_LOOP('',(#130));
#113=EDGE_LOOP('',(#131));
#114=EDGE_LOOP('',(#132));
#115=EDGE_LOOP('',(#133));
#116=EDGE_LOOP('',(#134));
#117=ORIENTED_EDGE('',*,*,#144,.T.);
#118=ORIENTED_EDGE('',*,*,#145,.F.);
#119=ORIENTED_EDGE('',*,*,#144,.F.);
#120=ORIENTED_EDGE('',*,*,#145,.T.);
#121=ORIENTED_EDGE('',*,*,#146,.F.);
#122=ORIENTED_EDGE('',*,*,#146,.T.);
#123=ORIENTED_EDGE('',*,*,#147,.F.);
#124=ORIENTED_EDGE('',*,*,#147,.T.);
#125=ORIENTED_EDGE('',*,*,#148,.T.);
#126=ORIENTED_EDGE('',*,*,#149,.T.);
#127=ORIENTED_EDGE('',*,*,#148,.F.);
#128=ORIENTED_EDGE('',*,*,#150,.T.);
#129=ORIENTED_EDGE('',*,*,#149,.F.);
#130=ORIENTED_EDGE('',*,*,#151,.T.);
#131=ORIENTED_EDGE('',*,*,#150,.F.);
#132=ORIENTED_EDGE('',*,*,#152,.T.);
#133=ORIENTED_EDGE('',*,*,#151,.F.);
#134=ORIENTED_EDGE('',*,*,#152,.F.);
#135=VERTEX_POINT('',#289);
#136=VERTEX_POINT('',#292);
#137=VERTEX_POINT('',#296);
#138=VERTEX_POINT('',#299);
#139=VERTEX_POINT('',#303);
#140=VERTEX_POINT('',#306);
#141=VERTEX_POINT('',#309);
#142=VERTEX_POINT('',#312);
#143=VERTEX_POINT('',#315);
#144=EDGE_CURVE('',#135,#135,#153,.T.);
#145=EDGE_CURVE('',#136,#136,#154,.T.);
#146=EDGE_CURVE('',#137,#137,#155,.T.);
#147=EDGE_CURVE('',#138,#138,#156,.T.);
#148=EDGE_CURVE('',#139,#139,#157,.T.);
#149=EDGE_CURVE('',#140,#140,#158,.T.);
#150=EDGE_CURVE('',#141,#141,#159,.T.);
#151=EDGE_CURVE('',#142,#142,#160,.T.);
#152=EDGE_CURVE('',#143,#143,#161,.T.);
#153=CIRCLE('',#199,2.9765625);
#154=CIRCLE('',#201,2.97545421592217);
#155=CIRCLE('',#204,2.9765625);
#156=CIRCLE('',#206,2.97545421592218);
#157=CIRCLE('',#209,2.9765625);
#158=CIRCLE('',#211,3.17500000000001);
#159=CIRCLE('',#213,3.175);
#160=CIRCLE('',#215,2.9765625);
#161=CIRCLE('',#217,2.97545421592218);
#162=CURVE_STYLE('',#167,POSITIVE_LENGTH_MEASURE(0.18),#166);
#163=CURVE_STYLE('',#168,POSITIVE_LENGTH_MEASURE(0.18),#192);
#164=CURVE_STYLE('',#169,POSITIVE_LENGTH_MEASURE(0.18),#192);
#165=CURVE_STYLE('',#170,POSITIVE_LENGTH_MEASURE(0.18),#192);
#166=DRAUGHTING_PRE_DEFINED_COLOUR('blue');
#167=DRAUGHTING_PRE_DEFINED_CURVE_FONT('continuous');
#168=DRAUGHTING_PRE_DEFINED_CURVE_FONT('continuous');
#169=DRAUGHTING_PRE_DEFINED_CURVE_FONT('continuous');
#170=DRAUGHTING_PRE_DEFINED_CURVE_FONT('continuous');
#171=B_SPLINE_CURVE_WITH_KNOTS('CUTTING PART LINE',3,(#272,#273,#274,#275,
#276,#277,#278,#279,#280,#281,#282,#283,#284),.UNSPECIFIED.,.T.,.F.,(4,
3,3,3,4),(0.,0.405077609378619,0.500017674073543,0.905095284992732,1.),
 .UNSPECIFIED.);
#172=PRESENTATION_LAYER_ASSIGNMENT('1','Layer 1',(#271,#171,#196,#197,#198,
#52,#53,#54));
#173=STYLED_ITEM('',(#181),#271);
#174=STYLED_ITEM('',(#182),#171);
#175=STYLED_ITEM('',(#183),#196);
#176=STYLED_ITEM('',(#184),#197);
#177=STYLED_ITEM('',(#185),#198);
#178=STYLED_ITEM('',(#186),#52);
#179=STYLED_ITEM('',(#187),#53);
#180=STYLED_ITEM('',(#188),#54);
#181=PRESENTATION_STYLE_ASSIGNMENT((#189));
#182=PRESENTATION_STYLE_ASSIGNMENT((#162));
#183=PRESENTATION_STYLE_ASSIGNMENT((#163));
#184=PRESENTATION_STYLE_ASSIGNMENT((#164));
#185=PRESENTATION_STYLE_ASSIGNMENT((#165));
#186=PRESENTATION_STYLE_ASSIGNMENT((#37));
#187=PRESENTATION_STYLE_ASSIGNMENT((#38));
#188=PRESENTATION_STYLE_ASSIGNMENT((#39));
#189=POINT_STYLE('',#190,POSITIVE_LENGTH_MEASURE(3.),#191);
#190=PRE_DEFINED_POINT_MARKER_SYMBOL('plus');
#191=COLOUR_RGB('Medium Royal',0.301960784313725,0.427450980392157,0.701960784313725);
#192=COLOUR_RGB('Pale Maroon',0.811764705882353,0.603921568627451,0.611764705882353);
#193=COLOUR_RGB('light gray',0.8,0.8,0.8);
#194=COLOUR_RGB('medium gray',0.490196078431373,0.490196078431373,0.490196078431373);
#195=AXIS2_PLACEMENT_3D('',#270,#220,#221);
#196=AXIS2_PLACEMENT_3D('MCS',#285,#222,#223);
#197=AXIS2_PLACEMENT_3D('PCS',#286,#224,#225);
#198=AXIS2_PLACEMENT_3D('CIP',#287,#226,#227);
#199=AXIS2_PLACEMENT_3D('',#288,#228,#229);
#200=AXIS2_PLACEMENT_3D('',#290,#230,#231);
#201=AXIS2_PLACEMENT_3D('',#291,#232,#233);
#202=AXIS2_PLACEMENT_3D('',#293,#234,#235);
#203=AXIS2_PLACEMENT_3D('',#294,#236,#237);
#204=AXIS2_PLACEMENT_3D('',#295,#238,#239);
#205=AXIS2_PLACEMENT_3D('',#297,#240,#241);
#206=AXIS2_PLACEMENT_3D('',#298,#242,#243);
#207=AXIS2_PLACEMENT_3D('',#300,#244,#245);
#208=AXIS2_PLACEMENT_3D('',#301,#246,#247);
#209=AXIS2_PLACEMENT_3D('',#302,#248,#249);
#210=AXIS2_PLACEMENT_3D('',#304,#250,#251);
#211=AXIS2_PLACEMENT_3D('',#305,#252,#253);
#212=AXIS2_PLACEMENT_3D('',#307,#254,#255);
#213=AXIS2_PLACEMENT_3D('',#308,#256,#257);
#214=AXIS2_PLACEMENT_3D('',#310,#258,#259);
#215=AXIS2_PLACEMENT_3D('',#311,#260,#261);
#216=AXIS2_PLACEMENT_3D('',#313,#262,#263);
#217=AXIS2_PLACEMENT_3D('',#314,#264,#265);
#218=AXIS2_PLACEMENT_3D('',#316,#266,#267);
#219=AXIS2_PLACEMENT_3D('',#317,#268,#269);
#220=DIRECTION('',(0.,0.,1.));
#221=DIRECTION('',(1.,0.,0.));
#222=DIRECTION('',(0.,0.,1.));
#223=DIRECTION('',(1.,0.,0.));
#224=DIRECTION('',(0.,0.,1.));
#225=DIRECTION('',(1.,0.,0.));
#226=DIRECTION('',(0.,0.,1.));
#227=DIRECTION('',(1.,0.,0.));
#228=DIRECTION('',(0.,0.,-1.));
#229=DIRECTION('',(-1.,0.,0.));
#230=DIRECTION('',(0.,0.,-1.));
#231=DIRECTION('',(-1.,0.,0.));
#232=DIRECTION('',(0.,0.,1.));
#233=DIRECTION('',(-1.,0.,0.));
#234=DIRECTION('',(0.,0.,-1.));
#235=DIRECTION('',(-1.,0.,3.62364556931014E-14));
#236=DIRECTION('',(0.,0.,1.));
#237=DIRECTION('',(1.,0.,0.));
#238=DIRECTION('',(0.,0.,-1.));
#239=DIRECTION('',(-1.,0.,0.));
#240=DIRECTION('',(0.,0.,1.));
#241=DIRECTION('',(1.,0.,0.));
#242=DIRECTION('',(0.,0.,-1.));
#243=DIRECTION('',(1.,0.,0.));
#244=DIRECTION('',(0.,0.,1.));
#245=DIRECTION('',(1.,0.,-1.47263871264647E-14));
#246=DIRECTION('',(0.,0.,1.));
#247=DIRECTION('',(1.,0.,0.));
#248=DIRECTION('',(0.,0.,-1.));
#249=DIRECTION('',(-1.,0.,0.));
#250=DIRECTION('',(0.,0.,-1.));
#251=DIRECTION('',(-1.,0.,0.));
#252=DIRECTION('',(0.,0.,-1.));
#253=DIRECTION('',(-1.,0.,0.));
#254=DIRECTION('',(0.,0.,1.));
#255=DIRECTION('',(1.,0.,-1.16097426631664E-16));
#256=DIRECTION('',(0.,0.,-1.));
#257=DIRECTION('',(-1.,0.,0.));
#258=DIRECTION('',(0.,0.,-1.));
#259=DIRECTION('',(-1.,0.,0.));
#260=DIRECTION('',(0.,0.,-1.));
#261=DIRECTION('',(-1.,0.,0.));
#262=DIRECTION('',(0.,0.,-1.));
#263=DIRECTION('',(-1.,0.,5.02532731921772E-16));
#264=DIRECTION('',(0.,0.,-1.));
#265=DIRECTION('',(1.,0.,0.));
#266=DIRECTION('',(0.,0.,1.));
#267=DIRECTION('',(1.,0.,0.));
#268=DIRECTION('',(0.,0.,1.));
#269=DIRECTION('',(1.,0.,0.));
#270=CARTESIAN_POINT('',(0.,0.,0.));
#271=CARTESIAN_POINT('CRP',(-2.9765625,0.,-63.5));
#272=CARTESIAN_POINT('',(0.,0.,-50.8));
#273=CARTESIAN_POINT('',(0.,0.,-55.0333333333333));
#274=CARTESIAN_POINT('',(0.,0.,-59.2666666666667));
#275=CARTESIAN_POINT('',(0.,0.,-63.5));
#276=CARTESIAN_POINT('',(-0.9921875,0.,-63.5));
#277=CARTESIAN_POINT('',(-1.984375,0.,-63.5));
#278=CARTESIAN_POINT('',(-2.9765625,0.,-63.5));
#279=CARTESIAN_POINT('',(-2.97619307197406,0.,-59.2666666666667));
#280=CARTESIAN_POINT('',(-2.97582364394811,0.,-55.0333333333333));
#281=CARTESIAN_POINT('',(-2.97545421592217,0.,-50.8));
#282=CARTESIAN_POINT('',(-1.98363614394811,0.,-50.8));
#283=CARTESIAN_POINT('',(-0.991818071974057,0.,-50.8));
#284=CARTESIAN_POINT('',(0.,0.,-50.8));
#285=CARTESIAN_POINT('',(0.,0.,-31.75));
#286=CARTESIAN_POINT('',(0.,0.,0.));
#287=CARTESIAN_POINT('',(0.,0.,-63.5));
#288=CARTESIAN_POINT('',(0.,0.,-63.5));
#289=CARTESIAN_POINT('',(-2.9765625,0.,-63.5));
#290=CARTESIAN_POINT('',(-4.44089209850063E-15,0.,-63.5));
#291=CARTESIAN_POINT('',(0.,0.,-50.8));
#292=CARTESIAN_POINT('',(-2.97545421592217,0.,-50.8));
#293=CARTESIAN_POINT('',(0.,0.,-63.5));
#294=CARTESIAN_POINT('',(0.,0.,-50.8));
#295=CARTESIAN_POINT('',(0.,0.,0.));
#296=CARTESIAN_POINT('',(-2.9765625,0.,0.));
#297=CARTESIAN_POINT('',(2.9765625,0.,0.));
#298=CARTESIAN_POINT('',(0.,0.,-12.7));
#299=CARTESIAN_POINT('',(2.97545421592218,0.,-12.7));
#300=CARTESIAN_POINT('',(0.,0.,-12.7));
#301=CARTESIAN_POINT('',(0.,0.,-12.7));
#302=CARTESIAN_POINT('',(0.,0.,-50.799999903284));
#303=CARTESIAN_POINT('',(-2.9765625,0.,-50.799999903284));
#304=CARTESIAN_POINT('',(2.97545421592217,0.,-50.799999951642));
#305=CARTESIAN_POINT('',(0.,0.,-49.6746050139196));
#306=CARTESIAN_POINT('',(-3.17500000000001,0.,-49.6746050139196));
#307=CARTESIAN_POINT('',(0.,0.,-50.799999903284));
#308=CARTESIAN_POINT('',(0.,0.,-13.8253949860804));
#309=CARTESIAN_POINT('',(-3.175,0.,-13.8253949860804));
#310=CARTESIAN_POINT('',(0.,0.,-31.75));
#311=CARTESIAN_POINT('',(0.,0.,-12.7));
#312=CARTESIAN_POINT('',(-2.9765625,0.,-12.7));
#313=CARTESIAN_POINT('',(0.,0.,-13.8253949860804));
#314=CARTESIAN_POINT('',(0.,0.,-12.7));
#315=CARTESIAN_POINT('',(2.97545421592218,0.,-12.7));
#316=CARTESIAN_POINT('',(2.9765625,0.,-12.7));
#317=CARTESIAN_POINT('',(0.,0.,-12.7));
#318=MECHANICAL_DESIGN_GEOMETRIC_PRESENTATION_REPRESENTATION('',(#173,#174,
#175,#176,#177,#178,#179,#180),#319);
#319=(
GEOMETRIC_REPRESENTATION_CONTEXT(3)
GLOBAL_UNCERTAINTY_ASSIGNED_CONTEXT((#320))
GLOBAL_UNIT_ASSIGNED_CONTEXT((#326,#322,#321))
REPRESENTATION_CONTEXT('C5141-.234XF2S','TOP_LEVEL_ASSEMBLY_PART')
);
#320=UNCERTAINTY_MEASURE_WITH_UNIT(LENGTH_MEASURE(2.E-5),#326,
'DISTANCE_ACCURACY_VALUE','Maximum Tolerance applied to model');
#321=(
NAMED_UNIT(*)
SI_UNIT($,.STERADIAN.)
SOLID_ANGLE_UNIT()
);
#322=(
CONVERSION_BASED_UNIT('DEGREE',#324)
NAMED_UNIT(#323)
PLANE_ANGLE_UNIT()
);
#323=DIMENSIONAL_EXPONENTS(0.,0.,0.,0.,0.,0.,0.);
#324=PLANE_ANGLE_MEASURE_WITH_UNIT(PLANE_ANGLE_MEASURE(0.0174532925),#325);
#325=(
NAMED_UNIT(*)
PLANE_ANGLE_UNIT()
SI_UNIT($,.RADIAN.)
);
#326=(
LENGTH_UNIT()
NAMED_UNIT(*)
SI_UNIT(.MILLI.,.METRE.)
);
ENDSEC;
END-ISO-10303-21;
