ISO-10303-21;
HEADER;
/* Generated by software containing ST-Developer
 * from STEP Tools, Inc. (www.steptools.com) 
 */
/* OPTION: using custom schema-name function */

FILE_DESCRIPTION(
/* description */ (''),
/* implementation_level */ '2;1');

FILE_NAME(
/* name */ 'C5141-.438D2R125.0Z4_Basic.stp',
/* time_stamp */ '2024-06-17T09:27:14+06:00',
/* author */ (''),
/* organization */ (''),
/* preprocessor_version */ 'ST-DEVELOPER v16.7',
/* originating_system */ 'SIEMENS PLM Software NX 12.0',
/* authorisation */ '');

FILE_SCHEMA (('AUTOMOTIVE_DESIGN { 1 0 10303 214 3 1 1 1 }'));
ENDSEC;

DATA;
#10=CONSTRUCTIVE_GEOMETRY_REPRESENTATION_RELATIONSHIP(
'supplemental geometry','',#34,#11);
#11=CONSTRUCTIVE_GEOMETRY_REPRESENTATION('supplemental geometry',(#164,
#165,#166),#292);
#12=GEOMETRICALLY_BOUNDED_WIREFRAME_SHAPE_REPRESENTATION(
'inpu4F28F8327hfe-None',(#35),#292);
#13=PROPERTY_DEFINITION_REPRESENTATION(#17,#15);
#14=PROPERTY_DEFINITION_REPRESENTATION(#18,#16);
#15=REPRESENTATION('',(#19),#292);
#16=REPRESENTATION('',(#20),#292);
#17=PROPERTY_DEFINITION('pmi validation property','',#25);
#18=PROPERTY_DEFINITION('pmi validation property','',#25);
#19=VALUE_REPRESENTATION_ITEM('number of annotations',COUNT_MEASURE(0.));
#20=VALUE_REPRESENTATION_ITEM('number of views',COUNT_MEASURE(0.));
#21=SHAPE_REPRESENTATION_RELATIONSHIP('None',
'relationship between inpu4F28F8327hfe-None and inpu4F28F8327hfe-None',
#34,#23);
#22=SHAPE_REPRESENTATION_RELATIONSHIP('None',
'relationship between inpu4F28F8327hfe-None and inpu4F28F8327hfe-None',
#34,#12);
#23=ADVANCED_BREP_SHAPE_REPRESENTATION('inpu4F28F8327hfe-None',(#47,#48),
#292);
#24=SHAPE_DEFINITION_REPRESENTATION(#25,#34);
#25=PRODUCT_DEFINITION_SHAPE('','',#26);
#26=PRODUCT_DEFINITION(' ','',#28,#27);
#27=PRODUCT_DEFINITION_CONTEXT('part definition',#33,'design');
#28=PRODUCT_DEFINITION_FORMATION_WITH_SPECIFIED_SOURCE(' ',' ',#30,
 .NOT_KNOWN.);
#29=PRODUCT_RELATED_PRODUCT_CATEGORY('part','',(#30));
#30=PRODUCT('inpu4F28F8327hfe','inpu4F28F8327hfe',' ',(#31));
#31=PRODUCT_CONTEXT(' ',#33,'mechanical');
#32=APPLICATION_PROTOCOL_DEFINITION('international standard',
'automotive_design',2010,#33);
#33=APPLICATION_CONTEXT(
'core data for automotive mechanical design processes');
#34=SHAPE_REPRESENTATION('inpu4F28F8327hfe-None',(#163),#292);
#35=GEOMETRIC_CURVE_SET('None',(#221,#140));
#36=(
BOUNDED_SURFACE()
B_SPLINE_SURFACE(3,3,((#259,#260,#261,#262,#263,#264,#265),(#266,#267,#268,
#269,#270,#271,#272),(#273,#274,#275,#276,#277,#278,#279),(#280,#281,#282,
#283,#284,#285,#286)),.UNSPECIFIED.,.F.,.T.,.F.)
B_SPLINE_SURFACE_WITH_KNOTS((4,4),(1,3,3,3,1),(0.,1.),(-0.5,0.,0.5,1.,1.5),
 .UNSPECIFIED.)
GEOMETRIC_REPRESENTATION_ITEM()
RATIONAL_B_SPLINE_SURFACE(((1.,0.333333333333333,0.333333333333333,1.,0.333333333333333,
0.333333333333333,1.),(0.804717284773137,0.268239094924379,0.268239094924379,
0.804717284773137,0.268239094924379,0.268239094924379,0.804717284773137),
(0.804717284773137,0.268239094924379,0.268239094924379,0.804717284773137,
0.268239094924379,0.268239094924379,0.804717284773137),(1.,0.333333333333333,
0.333333333333333,1.,0.333333333333333,0.333333333333333,1.)))
REPRESENTATION_ITEM('')
SURFACE()
);
#37=SURFACE_STYLE_USAGE(.BOTH.,#39);
#38=SURFACE_STYLE_USAGE(.BOTH.,#40);
#39=SURFACE_SIDE_STYLE('',(#41));
#40=SURFACE_SIDE_STYLE('',(#42));
#41=SURFACE_STYLE_FILL_AREA(#43);
#42=SURFACE_STYLE_FILL_AREA(#44);
#43=FILL_AREA_STYLE('',(#45));
#44=FILL_AREA_STYLE('',(#46));
#45=FILL_AREA_STYLE_COLOUR('',#161);
#46=FILL_AREA_STYLE_COLOUR('',#162);
#47=MANIFOLD_SOLID_BREP('NOCUT',#49);
#48=MANIFOLD_SOLID_BREP('CUT',#50);
#49=CLOSED_SHELL('',(#61,#62,#63,#64,#65));
#50=CLOSED_SHELL('',(#66,#67,#68,#69));
#51=CYLINDRICAL_SURFACE('',#174,5.55625);
#52=PLANE('',#170);
#53=PLANE('',#173);
#54=PLANE('',#175);
#55=PLANE('',#177);
#56=PLANE('',#181);
#57=FACE_OUTER_BOUND('',#84,.T.);
#58=FACE_OUTER_BOUND('',#89,.T.);
#59=FACE_OUTER_BOUND('',#90,.T.);
#60=FACE_OUTER_BOUND('',#95,.T.);
#61=ADVANCED_FACE('',(#72,#73),#70,.T.);
#62=ADVANCED_FACE('',(#57),#52,.T.);
#63=ADVANCED_FACE('',(#74,#75),#53,.T.);
#64=ADVANCED_FACE('',(#76,#77),#51,.T.);
#65=ADVANCED_FACE('',(#58),#54,.T.);
#66=ADVANCED_FACE('',(#59),#55,.T.);
#67=ADVANCED_FACE('',(#78,#79),#36,.T.);
#68=ADVANCED_FACE('',(#80,#81),#71,.T.);
#69=ADVANCED_FACE('',(#60),#56,.F.);
#70=CONICAL_SURFACE('',#169,5.55625,44.9999999999999);
#71=CONICAL_SURFACE('',#180,5.55624998791051,0.00500000000003624);
#72=FACE_BOUND('',#82,.T.);
#73=FACE_BOUND('',#83,.T.);
#74=FACE_BOUND('',#85,.T.);
#75=FACE_BOUND('',#86,.T.);
#76=FACE_BOUND('',#87,.T.);
#77=FACE_BOUND('',#88,.T.);
#78=FACE_BOUND('',#91,.T.);
#79=FACE_BOUND('',#92,.T.);
#80=FACE_BOUND('',#93,.T.);
#81=FACE_BOUND('',#94,.T.);
#82=EDGE_LOOP('',(#96));
#83=EDGE_LOOP('',(#97));
#84=EDGE_LOOP('',(#98));
#85=EDGE_LOOP('',(#99));
#86=EDGE_LOOP('',(#100));
#87=EDGE_LOOP('',(#101));
#88=EDGE_LOOP('',(#102));
#89=EDGE_LOOP('',(#103));
#90=EDGE_LOOP('',(#104));
#91=EDGE_LOOP('',(#105));
#92=EDGE_LOOP('',(#106));
#93=EDGE_LOOP('',(#107));
#94=EDGE_LOOP('',(#108));
#95=EDGE_LOOP('',(#109));
#96=ORIENTED_EDGE('',*,*,#117,.T.);
#97=ORIENTED_EDGE('',*,*,#118,.F.);
#98=ORIENTED_EDGE('',*,*,#117,.F.);
#99=ORIENTED_EDGE('',*,*,#119,.T.);
#100=ORIENTED_EDGE('',*,*,#120,.F.);
#101=ORIENTED_EDGE('',*,*,#118,.T.);
#102=ORIENTED_EDGE('',*,*,#119,.F.);
#103=ORIENTED_EDGE('',*,*,#120,.T.);
#104=ORIENTED_EDGE('',*,*,#121,.T.);
#105=ORIENTED_EDGE('',*,*,#122,.T.);
#106=ORIENTED_EDGE('',*,*,#121,.F.);
#107=ORIENTED_EDGE('',*,*,#123,.T.);
#108=ORIENTED_EDGE('',*,*,#122,.F.);
#109=ORIENTED_EDGE('',*,*,#123,.F.);
#110=VERTEX_POINT('',#242);
#111=VERTEX_POINT('',#244);
#112=VERTEX_POINT('',#248);
#113=VERTEX_POINT('',#250);
#114=VERTEX_POINT('',#255);
#115=VERTEX_POINT('',#258);
#116=VERTEX_POINT('',#288);
#117=EDGE_CURVE('',#110,#110,#124,.T.);
#118=EDGE_CURVE('',#111,#111,#125,.T.);
#119=EDGE_CURVE('',#112,#112,#126,.T.);
#120=EDGE_CURVE('',#113,#113,#127,.T.);
#121=EDGE_CURVE('',#114,#114,#128,.T.);
#122=EDGE_CURVE('',#115,#115,#129,.T.);
#123=EDGE_CURVE('',#116,#116,#130,.T.);
#124=CIRCLE('',#167,4.94665);
#125=CIRCLE('',#168,5.55625);
#126=CIRCLE('',#171,5.55625);
#127=CIRCLE('',#172,5.5543105149533);
#128=CIRCLE('',#176,2.38125);
#129=CIRCLE('',#178,5.55624998791051);
#130=CIRCLE('',#179,5.5543105149533);
#131=CURVE_STYLE('',#136,POSITIVE_LENGTH_MEASURE(0.18),#135);
#132=CURVE_STYLE('',#137,POSITIVE_LENGTH_MEASURE(0.18),#160);
#133=CURVE_STYLE('',#138,POSITIVE_LENGTH_MEASURE(0.18),#160);
#134=CURVE_STYLE('',#139,POSITIVE_LENGTH_MEASURE(0.18),#160);
#135=DRAUGHTING_PRE_DEFINED_COLOUR('blue');
#136=DRAUGHTING_PRE_DEFINED_CURVE_FONT('continuous');
#137=DRAUGHTING_PRE_DEFINED_CURVE_FONT('continuous');
#138=DRAUGHTING_PRE_DEFINED_CURVE_FONT('continuous');
#139=DRAUGHTING_PRE_DEFINED_CURVE_FONT('continuous');
#140=TRIMMED_CURVE('CUTTING PART LINE',#141,(PARAMETER_VALUE(0.)),(
PARAMETER_VALUE(1.)),.T.,.PARAMETER.);
#141=(
BOUNDED_CURVE()
B_SPLINE_CURVE(3,(#222,#223,#224,#225,#226,#227,#228,#229,#230,#231,#232,
#233,#234,#235,#236,#237),.UNSPECIFIED.,.T.,.F.)
B_SPLINE_CURVE_WITH_KNOTS((4,3,3,3,3,4),(0.,0.419502998717603,0.458831404847533,
0.541205202097304,0.908265751306361,1.),.UNSPECIFIED.)
CURVE()
GEOMETRIC_REPRESENTATION_ITEM()
RATIONAL_B_SPLINE_CURVE((1.,1.,1.,1.,1.,1.,1.,0.804717284773136,0.804717284773136,
1.,1.,1.,1.,1.,1.,1.))
REPRESENTATION_ITEM('CUTTING PART LINE')
);
#142=PRESENTATION_LAYER_ASSIGNMENT('1','Layer 1',(#221,#140,#164,#165,#166,
#47,#48));
#143=STYLED_ITEM('',(#150),#221);
#144=STYLED_ITEM('',(#151),#140);
#145=STYLED_ITEM('',(#152),#164);
#146=STYLED_ITEM('',(#153),#165);
#147=STYLED_ITEM('',(#154),#166);
#148=STYLED_ITEM('',(#155),#47);
#149=STYLED_ITEM('',(#156),#48);
#150=PRESENTATION_STYLE_ASSIGNMENT((#157));
#151=PRESENTATION_STYLE_ASSIGNMENT((#131));
#152=PRESENTATION_STYLE_ASSIGNMENT((#132));
#153=PRESENTATION_STYLE_ASSIGNMENT((#133));
#154=PRESENTATION_STYLE_ASSIGNMENT((#134));
#155=PRESENTATION_STYLE_ASSIGNMENT((#37));
#156=PRESENTATION_STYLE_ASSIGNMENT((#38));
#157=POINT_STYLE('',#158,POSITIVE_LENGTH_MEASURE(3.),#159);
#158=PRE_DEFINED_POINT_MARKER_SYMBOL('plus');
#159=COLOUR_RGB('Medium Royal',0.2,0.4,0.8);
#160=COLOUR_RGB('Pale Maroon',0.811749446860456,0.603921568627451,0.611749446860456);
#161=COLOUR_RGB('Medium Gray',0.490196078431373,0.490196078431373,0.490196078431373);
#162=COLOUR_RGB('Light Gray',0.8,0.8,0.8);
#163=AXIS2_PLACEMENT_3D('',#220,#182,#183);
#164=AXIS2_PLACEMENT_3D('MCS',#238,#184,#185);
#165=AXIS2_PLACEMENT_3D('CIP',#239,#186,#187);
#166=AXIS2_PLACEMENT_3D('PCS',#240,#188,#189);
#167=AXIS2_PLACEMENT_3D('',#241,#190,#191);
#168=AXIS2_PLACEMENT_3D('',#243,#192,#193);
#169=AXIS2_PLACEMENT_3D('',#245,#194,#195);
#170=AXIS2_PLACEMENT_3D('',#246,#196,#197);
#171=AXIS2_PLACEMENT_3D('',#247,#198,#199);
#172=AXIS2_PLACEMENT_3D('',#249,#200,#201);
#173=AXIS2_PLACEMENT_3D('',#251,#202,#203);
#174=AXIS2_PLACEMENT_3D('',#252,#204,#205);
#175=AXIS2_PLACEMENT_3D('',#253,#206,#207);
#176=AXIS2_PLACEMENT_3D('',#254,#208,#209);
#177=AXIS2_PLACEMENT_3D('',#256,#210,#211);
#178=AXIS2_PLACEMENT_3D('',#257,#212,#213);
#179=AXIS2_PLACEMENT_3D('',#287,#214,#215);
#180=AXIS2_PLACEMENT_3D('',#289,#216,#217);
#181=AXIS2_PLACEMENT_3D('',#290,#218,#219);
#182=DIRECTION('',(0.,0.,1.));
#183=DIRECTION('',(1.,0.,0.));
#184=DIRECTION('',(0.,0.,1.));
#185=DIRECTION('',(1.,0.,0.));
#186=DIRECTION('',(0.,0.,1.));
#187=DIRECTION('',(1.,0.,0.));
#188=DIRECTION('',(0.,0.,1.));
#189=DIRECTION('',(1.,0.,0.));
#190=DIRECTION('',(0.,0.,-1.));
#191=DIRECTION('',(-1.,0.,0.));
#192=DIRECTION('',(0.,0.,-1.));
#193=DIRECTION('',(-1.,0.,0.));
#194=DIRECTION('',(0.,0.,-1.));
#195=DIRECTION('',(-1.,0.,1.38011054158477E-17));
#196=DIRECTION('',(0.,0.,1.));
#197=DIRECTION('',(1.,0.,0.));
#198=DIRECTION('',(0.,0.,-1.));
#199=DIRECTION('',(-1.,0.,0.));
#200=DIRECTION('',(0.,0.,-1.));
#201=DIRECTION('',(-1.,0.,0.));
#202=DIRECTION('',(0.,0.,-1.));
#203=DIRECTION('',(-1.,0.,0.));
#204=DIRECTION('',(0.,0.,-1.));
#205=DIRECTION('',(-1.,0.,0.));
#206=DIRECTION('',(0.,0.,-1.));
#207=DIRECTION('',(-1.,0.,0.));
#208=DIRECTION('',(0.,0.,-1.));
#209=DIRECTION('',(-1.,0.,0.));
#210=DIRECTION('',(0.,0.,-1.));
#211=DIRECTION('',(-1.,0.,0.));
#212=DIRECTION('',(0.,0.,-1.));
#213=DIRECTION('',(-1.,0.,0.));
#214=DIRECTION('',(0.,0.,-1.));
#215=DIRECTION('',(-1.,0.,0.));
#216=DIRECTION('',(0.,0.,-1.));
#217=DIRECTION('',(-1.,0.,-1.72134723984182E-14));
#218=DIRECTION('',(0.,0.,-1.));
#219=DIRECTION('',(-1.,0.,0.));
#220=CARTESIAN_POINT('',(0.,0.,0.));
#221=CARTESIAN_POINT('CRP',(-5.55625,0.,-69.85));
#222=CARTESIAN_POINT('',(0.,0.,-44.45));
#223=CARTESIAN_POINT('',(0.,0.,-52.9166666666667));
#224=CARTESIAN_POINT('',(0.,0.,-61.3833333333333));
#225=CARTESIAN_POINT('',(0.,0.,-69.85));
#226=CARTESIAN_POINT('',(-0.79375,0.,-69.85));
#227=CARTESIAN_POINT('',(-1.5875,0.,-69.85));
#228=CARTESIAN_POINT('',(-2.38125,0.,-69.85));
#229=CARTESIAN_POINT('',(-4.24125063211531,0.,-69.85));
#230=CARTESIAN_POINT('',(-5.55641230358589,0.,-68.5347235540146));
#231=CARTESIAN_POINT('',(-5.55624998791049,0.,-66.6747229289816));
#232=CARTESIAN_POINT('',(-5.55560349692476,0.,-59.2664819526544));
#233=CARTESIAN_POINT('',(-5.55495700593903,0.,-51.8582409763272));
#234=CARTESIAN_POINT('',(-5.5543105149533,0.,-44.45));
#235=CARTESIAN_POINT('',(-3.70287367663554,0.,-44.45));
#236=CARTESIAN_POINT('',(-1.85143683831777,0.,-44.45));
#237=CARTESIAN_POINT('',(0.,0.,-44.45));
#238=CARTESIAN_POINT('',(0.,0.,-45.));
#239=CARTESIAN_POINT('',(0.,0.,-69.85));
#240=CARTESIAN_POINT('',(0.,0.,0.));
#241=CARTESIAN_POINT('',(0.,0.,0.));
#242=CARTESIAN_POINT('',(-4.94665,0.,0.));
#243=CARTESIAN_POINT('',(0.,0.,-0.609600000000002));
#244=CARTESIAN_POINT('',(-5.55625,0.,-0.609600000000002));
#245=CARTESIAN_POINT('',(0.,0.,-0.609600000000002));
#246=CARTESIAN_POINT('',(4.94665,0.,8.62997903152481E-17));
#247=CARTESIAN_POINT('',(0.,0.,-44.45));
#248=CARTESIAN_POINT('',(-5.55625,0.,-44.45));
#249=CARTESIAN_POINT('',(0.,0.,-44.45));
#250=CARTESIAN_POINT('',(-5.5543105149533,0.,-44.45));
#251=CARTESIAN_POINT('',(5.5543105149533,0.,-44.45));
#252=CARTESIAN_POINT('',(0.,0.,-45.));
#253=CARTESIAN_POINT('',(0.,0.,-44.45));
#254=CARTESIAN_POINT('',(0.,0.,-69.85));
#255=CARTESIAN_POINT('',(-2.38125,0.,-69.85));
#256=CARTESIAN_POINT('',(-1.33226762955019E-15,0.,-69.85));
#257=CARTESIAN_POINT('',(0.,0.,-66.6747229289816));
#258=CARTESIAN_POINT('',(-5.55624998791051,0.,-66.6747229289816));
#259=CARTESIAN_POINT('',(-2.38125,0.,-69.85));
#260=CARTESIAN_POINT('',(-2.38125,4.7625,-69.85));
#261=CARTESIAN_POINT('',(2.38125,4.7625,-69.85));
#262=CARTESIAN_POINT('',(2.38125,0.,-69.85));
#263=CARTESIAN_POINT('',(2.38125,-4.7625,-69.85));
#264=CARTESIAN_POINT('',(-2.38125,-4.7625,-69.85));
#265=CARTESIAN_POINT('',(-2.38125,0.,-69.85));
#266=CARTESIAN_POINT('',(-4.24125063211532,0.,-69.85));
#267=CARTESIAN_POINT('',(-4.24125063211532,8.48250126423064,-69.85));
#268=CARTESIAN_POINT('',(4.24125063211532,8.48250126423064,-69.85));
#269=CARTESIAN_POINT('',(4.24125063211532,0.,-69.85));
#270=CARTESIAN_POINT('',(4.24125063211532,-8.48250126423064,-69.85));
#271=CARTESIAN_POINT('',(-4.24125063211532,-8.48250126423064,-69.85));
#272=CARTESIAN_POINT('',(-4.24125063211532,0.,-69.85));
#273=CARTESIAN_POINT('',(-5.5564123035859,0.,-68.5347235540145));
#274=CARTESIAN_POINT('',(-5.5564123035859,11.1128246071718,-68.5347235540145));
#275=CARTESIAN_POINT('',(5.5564123035859,11.1128246071718,-68.5347235540145));
#276=CARTESIAN_POINT('',(5.5564123035859,0.,-68.5347235540145));
#277=CARTESIAN_POINT('',(5.5564123035859,-11.1128246071718,-68.5347235540145));
#278=CARTESIAN_POINT('',(-5.5564123035859,-11.1128246071718,-68.5347235540145));
#279=CARTESIAN_POINT('',(-5.5564123035859,0.,-68.5347235540145));
#280=CARTESIAN_POINT('',(-5.55624998791051,0.,-66.6747229289816));
#281=CARTESIAN_POINT('',(-5.55624998791051,11.112499975821,-66.6747229289816));
#282=CARTESIAN_POINT('',(5.55624998791051,11.112499975821,-66.6747229289816));
#283=CARTESIAN_POINT('',(5.55624998791051,0.,-66.6747229289816));
#284=CARTESIAN_POINT('',(5.55624998791051,-11.112499975821,-66.6747229289816));
#285=CARTESIAN_POINT('',(-5.55624998791051,-11.112499975821,-66.6747229289816));
#286=CARTESIAN_POINT('',(-5.55624998791051,0.,-66.6747229289816));
#287=CARTESIAN_POINT('',(0.,0.,-44.45));
#288=CARTESIAN_POINT('',(-5.5543105149533,0.,-44.45));
#289=CARTESIAN_POINT('',(0.,0.,-66.6747229289816));
#290=CARTESIAN_POINT('',(0.,0.,-44.45));
#291=MECHANICAL_DESIGN_GEOMETRIC_PRESENTATION_REPRESENTATION('',(#143,#144,
#145,#146,#147,#148,#149),#292);
#292=(
GEOMETRIC_REPRESENTATION_CONTEXT(3)
GLOBAL_UNCERTAINTY_ASSIGNED_CONTEXT((#293))
GLOBAL_UNIT_ASSIGNED_CONTEXT((#299,#295,#294))
REPRESENTATION_CONTEXT('C5141-.438D2R125','TOP_LEVEL_ASSEMBLY_PART')
);
#293=UNCERTAINTY_MEASURE_WITH_UNIT(LENGTH_MEASURE(0.0254),#299,
'DISTANCE_ACCURACY_VALUE','Maximum Tolerance applied to model');
#294=(
NAMED_UNIT(*)
SI_UNIT($,.STERADIAN.)
SOLID_ANGLE_UNIT()
);
#295=(
CONVERSION_BASED_UNIT('DEGREE',#297)
NAMED_UNIT(#296)
PLANE_ANGLE_UNIT()
);
#296=DIMENSIONAL_EXPONENTS(0.,0.,0.,0.,0.,0.,0.);
#297=PLANE_ANGLE_MEASURE_WITH_UNIT(PLANE_ANGLE_MEASURE(0.0174532925),#298);
#298=(
NAMED_UNIT(*)
PLANE_ANGLE_UNIT()
SI_UNIT($,.RADIAN.)
);
#299=(
LENGTH_UNIT()
NAMED_UNIT(*)
SI_UNIT(.MILLI.,.METRE.)
);
ENDSEC;
END-ISO-10303-21;
