ISO-10303-21;
HEADER;
/* Generated by software containing ST-Developer
 * from STEP Tools, Inc. (www.steptools.com) 
 */
/* OPTION: using custom schema-name function */

FILE_DESCRIPTION(
/* description */ (''),
/* implementation_level */ '2;1');

FILE_NAME(
/* name */ 'C5141-.500XD2S.3DZ4_Basic.stp',
/* time_stamp */ '2024-07-17T12:00:06+06:00',
/* author */ (''),
/* organization */ (''),
/* preprocessor_version */ 'ST-DEVELOPER v16.7',
/* originating_system */ 'SIEMENS PLM Software NX 12.0',
/* authorisation */ '');

FILE_SCHEMA (('AUTOMOTIVE_DESIGN { 1 0 10303 214 3 1 1 1 }'));
ENDSEC;

DATA;
#10=CONSTRUCTIVE_GEOMETRY_REPRESENTATION_RELATIONSHIP(
'supplemental geometry','',#34,#11);
#11=CONSTRUCTIVE_GEOMETRY_REPRESENTATION('supplemental geometry',(#186,
#187,#188),#294);
#12=GEOMETRICALLY_BOUNDED_WIREFRAME_SHAPE_REPRESENTATION(
'inpu3B8431E3r14y-None',(#35),#294);
#13=PROPERTY_DEFINITION_REPRESENTATION(#17,#15);
#14=PROPERTY_DEFINITION_REPRESENTATION(#18,#16);
#15=REPRESENTATION('',(#19),#294);
#16=REPRESENTATION('',(#20),#294);
#17=PROPERTY_DEFINITION('pmi validation property','',#25);
#18=PROPERTY_DEFINITION('pmi validation property','',#25);
#19=VALUE_REPRESENTATION_ITEM('number of annotations',COUNT_MEASURE(0.));
#20=VALUE_REPRESENTATION_ITEM('number of views',COUNT_MEASURE(0.));
#21=SHAPE_REPRESENTATION_RELATIONSHIP('None',
'relationship between inpu3B8431E3r14y-None and inpu3B8431E3r14y-None',
#34,#23);
#22=SHAPE_REPRESENTATION_RELATIONSHIP('None',
'relationship between inpu3B8431E3r14y-None and inpu3B8431E3r14y-None',
#34,#12);
#23=ADVANCED_BREP_SHAPE_REPRESENTATION('inpu3B8431E3r14y-None',(#52,#53,
#54),#294);
#24=SHAPE_DEFINITION_REPRESENTATION(#25,#34);
#25=PRODUCT_DEFINITION_SHAPE('','',#26);
#26=PRODUCT_DEFINITION(' ','',#28,#27);
#27=PRODUCT_DEFINITION_CONTEXT('part definition',#33,'design');
#28=PRODUCT_DEFINITION_FORMATION_WITH_SPECIFIED_SOURCE(' ',' ',#30,
 .NOT_KNOWN.);
#29=PRODUCT_RELATED_PRODUCT_CATEGORY('part','',(#30));
#30=PRODUCT('inpu3B8431E3r14y','inpu3B8431E3r14y',' ',(#31));
#31=PRODUCT_CONTEXT(' ',#33,'mechanical');
#32=APPLICATION_PROTOCOL_DEFINITION('international standard',
'automotive_design',2010,#33);
#33=APPLICATION_CONTEXT(
'core data for automotive mechanical design processes');
#34=SHAPE_REPRESENTATION('inpu3B8431E3r14y-None',(#185),#294);
#35=GEOMETRIC_CURVE_SET('None',(#249,#250,#251,#252,#149));
#36=CYLINDRICAL_SURFACE('',#197,6.35);
#37=SURFACE_STYLE_USAGE(.BOTH.,#40);
#38=SURFACE_STYLE_USAGE(.BOTH.,#41);
#39=SURFACE_STYLE_USAGE(.BOTH.,#42);
#40=SURFACE_SIDE_STYLE('',(#43));
#41=SURFACE_SIDE_STYLE('',(#44));
#42=SURFACE_SIDE_STYLE('',(#45));
#43=SURFACE_STYLE_FILL_AREA(#46);
#44=SURFACE_STYLE_FILL_AREA(#47);
#45=SURFACE_STYLE_FILL_AREA(#48);
#46=FILL_AREA_STYLE('',(#49));
#47=FILL_AREA_STYLE('',(#50));
#48=FILL_AREA_STYLE('',(#51));
#49=FILL_AREA_STYLE_COLOUR('',#183);
#50=FILL_AREA_STYLE_COLOUR('',#184);
#51=FILL_AREA_STYLE_COLOUR('',#183);
#52=MANIFOLD_SOLID_BREP('CUT',#55);
#53=MANIFOLD_SOLID_BREP('NOCUT',#56);
#54=MANIFOLD_SOLID_BREP('CUT',#57);
#55=CLOSED_SHELL('',(#68,#69,#70));
#56=CLOSED_SHELL('',(#71,#72,#73,#74));
#57=CLOSED_SHELL('',(#75,#76,#77));
#58=CONICAL_SURFACE('',#192,6.35,0.0050000000000042);
#59=CONICAL_SURFACE('',#204,6.34869100305769,0.00499999999997439);
#60=FACE_BOUND('',#92,.T.);
#61=FACE_BOUND('',#93,.T.);
#62=FACE_BOUND('',#96,.T.);
#63=FACE_BOUND('',#97,.T.);
#64=FACE_BOUND('',#98,.T.);
#65=FACE_BOUND('',#99,.T.);
#66=FACE_BOUND('',#102,.T.);
#67=FACE_BOUND('',#103,.T.);
#68=ADVANCED_FACE('',(#85),#78,.T.);
#69=ADVANCED_FACE('',(#60,#61),#58,.T.);
#70=ADVANCED_FACE('',(#86),#79,.T.);
#71=ADVANCED_FACE('',(#87),#80,.T.);
#72=ADVANCED_FACE('',(#62,#63),#36,.T.);
#73=ADVANCED_FACE('',(#64,#65),#81,.T.);
#74=ADVANCED_FACE('',(#88),#82,.T.);
#75=ADVANCED_FACE('',(#89),#83,.T.);
#76=ADVANCED_FACE('',(#66,#67),#59,.T.);
#77=ADVANCED_FACE('',(#90),#84,.F.);
#78=PLANE('',#190);
#79=PLANE('',#193);
#80=PLANE('',#195);
#81=PLANE('',#199);
#82=PLANE('',#200);
#83=PLANE('',#202);
#84=PLANE('',#205);
#85=FACE_OUTER_BOUND('',#91,.T.);
#86=FACE_OUTER_BOUND('',#94,.T.);
#87=FACE_OUTER_BOUND('',#95,.T.);
#88=FACE_OUTER_BOUND('',#100,.T.);
#89=FACE_OUTER_BOUND('',#101,.T.);
#90=FACE_OUTER_BOUND('',#104,.T.);
#91=EDGE_LOOP('',(#105));
#92=EDGE_LOOP('',(#106));
#93=EDGE_LOOP('',(#107));
#94=EDGE_LOOP('',(#108));
#95=EDGE_LOOP('',(#109));
#96=EDGE_LOOP('',(#110));
#97=EDGE_LOOP('',(#111));
#98=EDGE_LOOP('',(#112));
#99=EDGE_LOOP('',(#113));
#100=EDGE_LOOP('',(#114));
#101=EDGE_LOOP('',(#115));
#102=EDGE_LOOP('',(#116));
#103=EDGE_LOOP('',(#117));
#104=EDGE_LOOP('',(#118));
#105=ORIENTED_EDGE('',*,*,#126,.T.);
#106=ORIENTED_EDGE('',*,*,#127,.F.);
#107=ORIENTED_EDGE('',*,*,#126,.F.);
#108=ORIENTED_EDGE('',*,*,#127,.T.);
#109=ORIENTED_EDGE('',*,*,#128,.T.);
#110=ORIENTED_EDGE('',*,*,#129,.T.);
#111=ORIENTED_EDGE('',*,*,#128,.F.);
#112=ORIENTED_EDGE('',*,*,#130,.T.);
#113=ORIENTED_EDGE('',*,*,#129,.F.);
#114=ORIENTED_EDGE('',*,*,#130,.F.);
#115=ORIENTED_EDGE('',*,*,#131,.F.);
#116=ORIENTED_EDGE('',*,*,#131,.T.);
#117=ORIENTED_EDGE('',*,*,#132,.F.);
#118=ORIENTED_EDGE('',*,*,#132,.T.);
#119=VERTEX_POINT('',#270);
#120=VERTEX_POINT('',#273);
#121=VERTEX_POINT('',#277);
#122=VERTEX_POINT('',#280);
#123=VERTEX_POINT('',#283);
#124=VERTEX_POINT('',#287);
#125=VERTEX_POINT('',#290);
#126=EDGE_CURVE('',#119,#119,#133,.T.);
#127=EDGE_CURVE('',#120,#120,#134,.T.);
#128=EDGE_CURVE('',#121,#121,#135,.T.);
#129=EDGE_CURVE('',#122,#122,#136,.T.);
#130=EDGE_CURVE('',#123,#123,#137,.T.);
#131=EDGE_CURVE('',#124,#124,#138,.T.);
#132=EDGE_CURVE('',#125,#125,#139,.T.);
#133=CIRCLE('',#189,6.35);
#134=CIRCLE('',#191,6.34869100305768);
#135=CIRCLE('',#194,6.35000000000001);
#136=CIRCLE('',#196,6.35);
#137=CIRCLE('',#198,6.34869100305769);
#138=CIRCLE('',#201,6.35);
#139=CIRCLE('',#203,6.34869100305769);
#140=CURVE_STYLE('',#145,POSITIVE_LENGTH_MEASURE(0.18),#144);
#141=CURVE_STYLE('',#146,POSITIVE_LENGTH_MEASURE(0.18),#182);
#142=CURVE_STYLE('',#147,POSITIVE_LENGTH_MEASURE(0.18),#182);
#143=CURVE_STYLE('',#148,POSITIVE_LENGTH_MEASURE(0.18),#182);
#144=DRAUGHTING_PRE_DEFINED_COLOUR('blue');
#145=DRAUGHTING_PRE_DEFINED_CURVE_FONT('continuous');
#146=DRAUGHTING_PRE_DEFINED_CURVE_FONT('continuous');
#147=DRAUGHTING_PRE_DEFINED_CURVE_FONT('continuous');
#148=DRAUGHTING_PRE_DEFINED_CURVE_FONT('continuous');
#149=B_SPLINE_CURVE_WITH_KNOTS('CUTTING PART LINE',3,(#253,#254,#255,#256,
#257,#258,#259,#260,#261,#262,#263,#264,#265),.UNSPECIFIED.,.T.,.F.,(1,
3,3,3,3,3,1),(-0.148685845991484,0.,0.351298825036274,0.500015327634964,
0.851314154008516,1.,1.35129882503627),.UNSPECIFIED.);
#150=PRESENTATION_LAYER_ASSIGNMENT('1','Layer 1',(#249,#250,#251,#252,#149,
#186,#187,#188,#52,#53,#54));
#151=STYLED_ITEM('',(#162),#249);
#152=STYLED_ITEM('',(#163),#250);
#153=STYLED_ITEM('',(#164),#251);
#154=STYLED_ITEM('',(#165),#252);
#155=STYLED_ITEM('',(#166),#149);
#156=STYLED_ITEM('',(#167),#186);
#157=STYLED_ITEM('',(#168),#187);
#158=STYLED_ITEM('',(#169),#188);
#159=STYLED_ITEM('',(#170),#52);
#160=STYLED_ITEM('',(#171),#53);
#161=STYLED_ITEM('',(#172),#54);
#162=PRESENTATION_STYLE_ASSIGNMENT((#173));
#163=PRESENTATION_STYLE_ASSIGNMENT((#174));
#164=PRESENTATION_STYLE_ASSIGNMENT((#175));
#165=PRESENTATION_STYLE_ASSIGNMENT((#176));
#166=PRESENTATION_STYLE_ASSIGNMENT((#140));
#167=PRESENTATION_STYLE_ASSIGNMENT((#141));
#168=PRESENTATION_STYLE_ASSIGNMENT((#142));
#169=PRESENTATION_STYLE_ASSIGNMENT((#143));
#170=PRESENTATION_STYLE_ASSIGNMENT((#37));
#171=PRESENTATION_STYLE_ASSIGNMENT((#38));
#172=PRESENTATION_STYLE_ASSIGNMENT((#39));
#173=POINT_STYLE('',#177,POSITIVE_LENGTH_MEASURE(3.),#181);
#174=POINT_STYLE('',#178,POSITIVE_LENGTH_MEASURE(3.),#182);
#175=POINT_STYLE('',#179,POSITIVE_LENGTH_MEASURE(3.),#182);
#176=POINT_STYLE('',#180,POSITIVE_LENGTH_MEASURE(3.),#182);
#177=PRE_DEFINED_POINT_MARKER_SYMBOL('plus');
#178=PRE_DEFINED_POINT_MARKER_SYMBOL('plus');
#179=PRE_DEFINED_POINT_MARKER_SYMBOL('plus');
#180=PRE_DEFINED_POINT_MARKER_SYMBOL('plus');
#181=COLOUR_RGB('Pale Royal',0.219592584115358,0.470572976272221,0.752941176470588);
#182=COLOUR_RGB('Pale Maroon',0.811749446860456,0.603921568627451,0.611749446860456);
#183=COLOUR_RGB('Light Gray',0.8,0.8,0.8);
#184=COLOUR_RGB('Medium Gray',0.490196078431373,0.490196078431373,0.490196078431373);
#185=AXIS2_PLACEMENT_3D('',#248,#206,#207);
#186=AXIS2_PLACEMENT_3D('MCS',#266,#208,#209);
#187=AXIS2_PLACEMENT_3D('PCS',#267,#210,#211);
#188=AXIS2_PLACEMENT_3D('CIP',#268,#212,#213);
#189=AXIS2_PLACEMENT_3D('',#269,#214,#215);
#190=AXIS2_PLACEMENT_3D('',#271,#216,#217);
#191=AXIS2_PLACEMENT_3D('',#272,#218,#219);
#192=AXIS2_PLACEMENT_3D('',#274,#220,#221);
#193=AXIS2_PLACEMENT_3D('',#275,#222,#223);
#194=AXIS2_PLACEMENT_3D('',#276,#224,#225);
#195=AXIS2_PLACEMENT_3D('',#278,#226,#227);
#196=AXIS2_PLACEMENT_3D('',#279,#228,#229);
#197=AXIS2_PLACEMENT_3D('',#281,#230,#231);
#198=AXIS2_PLACEMENT_3D('',#282,#232,#233);
#199=AXIS2_PLACEMENT_3D('',#284,#234,#235);
#200=AXIS2_PLACEMENT_3D('',#285,#236,#237);
#201=AXIS2_PLACEMENT_3D('',#286,#238,#239);
#202=AXIS2_PLACEMENT_3D('',#288,#240,#241);
#203=AXIS2_PLACEMENT_3D('',#289,#242,#243);
#204=AXIS2_PLACEMENT_3D('',#291,#244,#245);
#205=AXIS2_PLACEMENT_3D('',#292,#246,#247);
#206=DIRECTION('',(0.,0.,1.));
#207=DIRECTION('',(1.,0.,0.));
#208=DIRECTION('',(0.,0.,1.));
#209=DIRECTION('',(1.,0.,0.));
#210=DIRECTION('',(0.,0.,1.));
#211=DIRECTION('',(1.,0.,0.));
#212=DIRECTION('',(0.,0.,1.));
#213=DIRECTION('',(1.,0.,0.));
#214=DIRECTION('',(0.,0.,-1.));
#215=DIRECTION('',(-1.,0.,0.));
#216=DIRECTION('',(0.,0.,-1.));
#217=DIRECTION('',(1.,0.,0.));
#218=DIRECTION('',(0.,0.,1.));
#219=DIRECTION('',(-1.,0.,0.));
#220=DIRECTION('',(0.,0.,-1.));
#221=DIRECTION('',(1.,0.,1.29351064349747E-14));
#222=DIRECTION('',(0.,0.,1.));
#223=DIRECTION('',(-1.,0.,0.));
#224=DIRECTION('',(0.,0.,-1.));
#225=DIRECTION('',(-1.,0.,0.));
#226=DIRECTION('',(0.,0.,-1.));
#227=DIRECTION('',(1.,0.,0.));
#228=DIRECTION('',(0.,0.,-1.));
#229=DIRECTION('',(-1.,0.,0.));
#230=DIRECTION('',(0.,0.,-1.));
#231=DIRECTION('',(1.,0.,0.));
#232=DIRECTION('',(0.,0.,-1.));
#233=DIRECTION('',(1.,0.,0.));
#234=DIRECTION('',(0.,0.,1.));
#235=DIRECTION('',(-1.,0.,0.));
#236=DIRECTION('',(0.,0.,1.));
#237=DIRECTION('',(-1.,0.,0.));
#238=DIRECTION('',(0.,0.,-1.));
#239=DIRECTION('',(-1.,0.,0.));
#240=DIRECTION('',(0.,0.,1.));
#241=DIRECTION('',(-1.,0.,0.));
#242=DIRECTION('',(0.,0.,-1.));
#243=DIRECTION('',(1.,0.,0.));
#244=DIRECTION('',(0.,0.,1.));
#245=DIRECTION('',(-1.,0.,-2.15628954687633E-15));
#246=DIRECTION('',(0.,0.,1.));
#247=DIRECTION('',(-1.,0.,0.));
#248=CARTESIAN_POINT('',(0.,0.,0.));
#249=CARTESIAN_POINT('CRP',(-6.35,0.,-101.6));
#250=CARTESIAN_POINT('',(0.,0.,-50.8));
#251=CARTESIAN_POINT('',(0.,0.,0.));
#252=CARTESIAN_POINT('',(0.,0.,-101.6));
#253=CARTESIAN_POINT('',(-9.95180269466373E-16,0.,-86.6));
#254=CARTESIAN_POINT('',(-4.49010988383941E-16,0.,-91.6));
#255=CARTESIAN_POINT('',(2.04160142464736E-16,0.,-96.6));
#256=CARTESIAN_POINT('',(8.72754846506769E-16,0.,-101.6));
#257=CARTESIAN_POINT('',(-2.11666666666667,0.,-101.6));
#258=CARTESIAN_POINT('',(-4.23333333333333,0.,-101.6));
#259=CARTESIAN_POINT('',(-6.35,0.,-101.6));
#260=CARTESIAN_POINT('',(-6.34956366768589,0.,-96.6));
#261=CARTESIAN_POINT('',(-6.34912733537179,0.,-91.6));
#262=CARTESIAN_POINT('',(-6.34869100305768,0.,-86.6));
#263=CARTESIAN_POINT('',(-4.23246066870512,0.,-86.6));
#264=CARTESIAN_POINT('',(-2.11623033435256,0.,-86.6));
#265=CARTESIAN_POINT('',(-9.95180269466373E-16,0.,-86.6));
#266=CARTESIAN_POINT('',(0.,0.,-50.8));
#267=CARTESIAN_POINT('',(0.,0.,0.));
#268=CARTESIAN_POINT('',(0.,0.,-101.6));
#269=CARTESIAN_POINT('',(0.,0.,-101.6));
#270=CARTESIAN_POINT('',(-6.35,0.,-101.6));
#271=CARTESIAN_POINT('',(0.,0.,-101.6));
#272=CARTESIAN_POINT('',(0.,0.,-86.6));
#273=CARTESIAN_POINT('',(-6.34869100305768,0.,-86.6));
#274=CARTESIAN_POINT('',(0.,0.,-101.6));
#275=CARTESIAN_POINT('',(0.,0.,-86.6));
#276=CARTESIAN_POINT('',(0.,0.,-86.5999998857685));
#277=CARTESIAN_POINT('',(-6.35000000000001,0.,-86.5999998857685));
#278=CARTESIAN_POINT('',(6.34869100305768,0.,-86.5999999428842));
#279=CARTESIAN_POINT('',(0.,0.,-15.));
#280=CARTESIAN_POINT('',(-6.35,0.,-15.));
#281=CARTESIAN_POINT('',(0.,0.,-72.898));
#282=CARTESIAN_POINT('',(0.,0.,-15.));
#283=CARTESIAN_POINT('',(6.34869100305769,0.,-15.));
#284=CARTESIAN_POINT('',(6.35,0.,-15.));
#285=CARTESIAN_POINT('',(0.,0.,-15.));
#286=CARTESIAN_POINT('',(0.,0.,0.));
#287=CARTESIAN_POINT('',(-6.35,0.,0.));
#288=CARTESIAN_POINT('',(6.35,0.,0.));
#289=CARTESIAN_POINT('',(0.,0.,-15.));
#290=CARTESIAN_POINT('',(6.34869100305769,0.,-15.));
#291=CARTESIAN_POINT('',(0.,0.,-15.));
#292=CARTESIAN_POINT('',(0.,0.,-15.));
#293=MECHANICAL_DESIGN_GEOMETRIC_PRESENTATION_REPRESENTATION('',(#151,#152,
#153,#154,#155,#156,#157,#158,#159,#160,#161),#294);
#294=(
GEOMETRIC_REPRESENTATION_CONTEXT(3)
GLOBAL_UNCERTAINTY_ASSIGNED_CONTEXT((#295))
GLOBAL_UNIT_ASSIGNED_CONTEXT((#301,#297,#296))
REPRESENTATION_CONTEXT('C5141-.500XD2S','TOP_LEVEL_ASSEMBLY_PART')
);
#295=UNCERTAINTY_MEASURE_WITH_UNIT(LENGTH_MEASURE(2.E-5),#301,
'DISTANCE_ACCURACY_VALUE','Maximum Tolerance applied to model');
#296=(
NAMED_UNIT(*)
SI_UNIT($,.STERADIAN.)
SOLID_ANGLE_UNIT()
);
#297=(
CONVERSION_BASED_UNIT('DEGREE',#299)
NAMED_UNIT(#298)
PLANE_ANGLE_UNIT()
);
#298=DIMENSIONAL_EXPONENTS(0.,0.,0.,0.,0.,0.,0.);
#299=PLANE_ANGLE_MEASURE_WITH_UNIT(PLANE_ANGLE_MEASURE(0.0174532925),#300);
#300=(
NAMED_UNIT(*)
PLANE_ANGLE_UNIT()
SI_UNIT($,.RADIAN.)
);
#301=(
LENGTH_UNIT()
NAMED_UNIT(*)
SI_UNIT(.MILLI.,.METRE.)
);
ENDSEC;
END-ISO-10303-21;
