ISO-10303-21;
HEADER;
/* Generated by software containing ST-Developer
 * from STEP Tools, Inc. (www.steptools.com) 
 */
/* OPTION: using custom schema-name function */

FILE_DESCRIPTION(
/* description */ (''),
/* implementation_level */ '2;1');

FILE_NAME(
/* name */ 'C5141-020F2S.0Z4_Basic.stp',
/* time_stamp */ '2024-08-28T09:02:04+06:00',
/* author */ (''),
/* organization */ (''),
/* preprocessor_version */ 'ST-DEVELOPER v18.102',
/* originating_system */ 'SIEMENS PLM Software NX2206.8101',
/* authorisation */ '');

FILE_SCHEMA (('AUTOMOTIVE_DESIGN { 1 0 10303 214 3 1 1 1 }'));
ENDSEC;

DATA;
#10=CONSTRUCTIVE_GEOMETRY_REPRESENTATION_RELATIONSHIP(
'supplemental geometry','',#34,#11);
#11=CONSTRUCTIVE_GEOMETRY_REPRESENTATION('supplemental geometry',(#163,
#164,#165),#264);
#12=GEOMETRICALLY_BOUNDED_WIREFRAME_SHAPE_REPRESENTATION(
'inpu37B43D6Dwsmy-None',(#35),#264);
#13=PROPERTY_DEFINITION_REPRESENTATION(#17,#15);
#14=PROPERTY_DEFINITION_REPRESENTATION(#18,#16);
#15=REPRESENTATION('',(#19),#264);
#16=REPRESENTATION('',(#20),#264);
#17=PROPERTY_DEFINITION('pmi validation property','',#25);
#18=PROPERTY_DEFINITION('pmi validation property','',#25);
#19=VALUE_REPRESENTATION_ITEM('number of annotations',COUNT_MEASURE(0.));
#20=VALUE_REPRESENTATION_ITEM('number of views',COUNT_MEASURE(0.));
#21=SHAPE_REPRESENTATION_RELATIONSHIP('None',
'relationship between inpu37B43D6Dwsmy-None and inpu37B43D6Dwsmy-None',
#34,#23);
#22=SHAPE_REPRESENTATION_RELATIONSHIP('None',
'relationship between inpu37B43D6Dwsmy-None and inpu37B43D6Dwsmy-None',
#34,#12);
#23=ADVANCED_BREP_SHAPE_REPRESENTATION('inpu37B43D6Dwsmy-None',(#46,#47),
#264);
#24=SHAPE_DEFINITION_REPRESENTATION(#25,#34);
#25=PRODUCT_DEFINITION_SHAPE('','',#26);
#26=PRODUCT_DEFINITION(' ','',#28,#27);
#27=PRODUCT_DEFINITION_CONTEXT('part definition',#33,'design');
#28=PRODUCT_DEFINITION_FORMATION_WITH_SPECIFIED_SOURCE(' ',' ',#30,
 .NOT_KNOWN.);
#29=PRODUCT_RELATED_PRODUCT_CATEGORY('part','',(#30));
#30=PRODUCT('inpu37B43D6Dwsmy','inpu37B43D6Dwsmy',' ',(#31));
#31=PRODUCT_CONTEXT(' ',#33,'mechanical');
#32=APPLICATION_PROTOCOL_DEFINITION('international standard',
'automotive_design',2010,#33);
#33=APPLICATION_CONTEXT(
'core data for automotive mechanical design processes');
#34=SHAPE_REPRESENTATION('inpu37B43D6Dwsmy-None',(#162),#264);
#35=GEOMETRIC_CURVE_SET('None',(#223,#140));
#36=SURFACE_STYLE_USAGE(.BOTH.,#38);
#37=SURFACE_STYLE_USAGE(.BOTH.,#39);
#38=SURFACE_SIDE_STYLE('',(#40));
#39=SURFACE_SIDE_STYLE('',(#41));
#40=SURFACE_STYLE_FILL_AREA(#42);
#41=SURFACE_STYLE_FILL_AREA(#43);
#42=FILL_AREA_STYLE('',(#44));
#43=FILL_AREA_STYLE('',(#45));
#44=FILL_AREA_STYLE_COLOUR('',#160);
#45=FILL_AREA_STYLE_COLOUR('',#161);
#46=MANIFOLD_SOLID_BREP('NOCUT',#48);
#47=MANIFOLD_SOLID_BREP('CUT',#49);
#48=CLOSED_SHELL('',(#60,#61,#62,#63,#64,#65));
#49=CLOSED_SHELL('',(#66,#67,#68));
#50=CYLINDRICAL_SURFACE('',#173,1.01500000000001);
#51=CYLINDRICAL_SURFACE('',#176,1.5);
#52=PLANE('',#169);
#53=PLANE('',#171);
#54=PLANE('',#178);
#55=PLANE('',#181);
#56=FACE_OUTER_BOUND('',#84,.T.);
#57=FACE_OUTER_BOUND('',#85,.T.);
#58=FACE_OUTER_BOUND('',#92,.T.);
#59=FACE_OUTER_BOUND('',#95,.T.);
#60=ADVANCED_FACE('',(#72,#73),#69,.T.);
#61=ADVANCED_FACE('',(#56),#52,.T.);
#62=ADVANCED_FACE('',(#57),#53,.T.);
#63=ADVANCED_FACE('',(#74,#75),#50,.T.);
#64=ADVANCED_FACE('',(#76,#77),#70,.T.);
#65=ADVANCED_FACE('',(#78,#79),#51,.T.);
#66=ADVANCED_FACE('',(#58),#54,.T.);
#67=ADVANCED_FACE('',(#80,#81),#71,.T.);
#68=ADVANCED_FACE('',(#59),#55,.F.);
#69=CONICAL_SURFACE('',#168,1.5,45.);
#70=CONICAL_SURFACE('',#175,1.01500000000001,16.0000000000001);
#71=CONICAL_SURFACE('',#180,0.999999999999999,0.00500000000000524);
#72=FACE_BOUND('',#82,.T.);
#73=FACE_BOUND('',#83,.T.);
#74=FACE_BOUND('',#86,.T.);
#75=FACE_BOUND('',#87,.T.);
#76=FACE_BOUND('',#88,.T.);
#77=FACE_BOUND('',#89,.T.);
#78=FACE_BOUND('',#90,.T.);
#79=FACE_BOUND('',#91,.T.);
#80=FACE_BOUND('',#93,.T.);
#81=FACE_BOUND('',#94,.T.);
#82=EDGE_LOOP('',(#96));
#83=EDGE_LOOP('',(#97));
#84=EDGE_LOOP('',(#98));
#85=EDGE_LOOP('',(#99));
#86=EDGE_LOOP('',(#100));
#87=EDGE_LOOP('',(#101));
#88=EDGE_LOOP('',(#102));
#89=EDGE_LOOP('',(#103));
#90=EDGE_LOOP('',(#104));
#91=EDGE_LOOP('',(#105));
#92=EDGE_LOOP('',(#106));
#93=EDGE_LOOP('',(#107));
#94=EDGE_LOOP('',(#108));
#95=EDGE_LOOP('',(#109));
#96=ORIENTED_EDGE('',*,*,#117,.T.);
#97=ORIENTED_EDGE('',*,*,#118,.F.);
#98=ORIENTED_EDGE('',*,*,#117,.F.);
#99=ORIENTED_EDGE('',*,*,#119,.T.);
#100=ORIENTED_EDGE('',*,*,#120,.T.);
#101=ORIENTED_EDGE('',*,*,#119,.F.);
#102=ORIENTED_EDGE('',*,*,#121,.T.);
#103=ORIENTED_EDGE('',*,*,#120,.F.);
#104=ORIENTED_EDGE('',*,*,#118,.T.);
#105=ORIENTED_EDGE('',*,*,#121,.F.);
#106=ORIENTED_EDGE('',*,*,#122,.T.);
#107=ORIENTED_EDGE('',*,*,#123,.T.);
#108=ORIENTED_EDGE('',*,*,#122,.F.);
#109=ORIENTED_EDGE('',*,*,#123,.F.);
#110=VERTEX_POINT('',#241);
#111=VERTEX_POINT('',#243);
#112=VERTEX_POINT('',#247);
#113=VERTEX_POINT('',#250);
#114=VERTEX_POINT('',#253);
#115=VERTEX_POINT('',#257);
#116=VERTEX_POINT('',#260);
#117=EDGE_CURVE('',#110,#110,#124,.T.);
#118=EDGE_CURVE('',#111,#111,#125,.T.);
#119=EDGE_CURVE('',#112,#112,#126,.T.);
#120=EDGE_CURVE('',#113,#113,#127,.T.);
#121=EDGE_CURVE('',#114,#114,#128,.T.);
#122=EDGE_CURVE('',#115,#115,#129,.T.);
#123=EDGE_CURVE('',#116,#116,#130,.T.);
#124=CIRCLE('',#166,1.2);
#125=CIRCLE('',#167,1.5);
#126=CIRCLE('',#170,1.01500000000001);
#127=CIRCLE('',#172,1.01500000000001);
#128=CIRCLE('',#174,1.5);
#129=CIRCLE('',#177,0.999999999999999);
#130=CIRCLE('',#179,0.999650934148714);
#131=CURVE_STYLE('',#136,POSITIVE_LENGTH_MEASURE(0.18),#135);
#132=CURVE_STYLE('',#137,POSITIVE_LENGTH_MEASURE(0.18),#159);
#133=CURVE_STYLE('',#138,POSITIVE_LENGTH_MEASURE(0.18),#159);
#134=CURVE_STYLE('',#139,POSITIVE_LENGTH_MEASURE(0.18),#159);
#135=DRAUGHTING_PRE_DEFINED_COLOUR('blue');
#136=DRAUGHTING_PRE_DEFINED_CURVE_FONT('continuous');
#137=DRAUGHTING_PRE_DEFINED_CURVE_FONT('continuous');
#138=DRAUGHTING_PRE_DEFINED_CURVE_FONT('continuous');
#139=DRAUGHTING_PRE_DEFINED_CURVE_FONT('continuous');
#140=B_SPLINE_CURVE_WITH_KNOTS('CUTTING PART LINE',3,(#224,#225,#226,#227,
#228,#229,#230,#231,#232,#233,#234,#235,#236),.UNSPECIFIED.,.T.,.F.,(4,
3,3,3,4),(0.,0.400013962513363,0.500017453134203,0.900031417177619,1.),
 .UNSPECIFIED.);
#141=PRESENTATION_LAYER_ASSIGNMENT('1','Layer 1',(#223,#140,#163,#164,#165,
#46,#47));
#142=STYLED_ITEM('',(#149),#223);
#143=STYLED_ITEM('',(#150),#140);
#144=STYLED_ITEM('',(#151),#163);
#145=STYLED_ITEM('',(#152),#164);
#146=STYLED_ITEM('',(#153),#165);
#147=STYLED_ITEM('',(#154),#46);
#148=STYLED_ITEM('',(#155),#47);
#149=PRESENTATION_STYLE_ASSIGNMENT((#156));
#150=PRESENTATION_STYLE_ASSIGNMENT((#131));
#151=PRESENTATION_STYLE_ASSIGNMENT((#132));
#152=PRESENTATION_STYLE_ASSIGNMENT((#133));
#153=PRESENTATION_STYLE_ASSIGNMENT((#134));
#154=PRESENTATION_STYLE_ASSIGNMENT((#36));
#155=PRESENTATION_STYLE_ASSIGNMENT((#37));
#156=POINT_STYLE('',#157,POSITIVE_LENGTH_MEASURE(3.),#158);
#157=PRE_DEFINED_POINT_MARKER_SYMBOL('plus');
#158=COLOUR_RGB('Medium Royal',0.301960784313725,0.427450980392157,0.701960784313725);
#159=COLOUR_RGB('Pale Maroon',0.811764705882353,0.603921568627451,0.611764705882353);
#160=COLOUR_RGB('medium gray',0.490196078431373,0.490196078431373,0.490196078431373);
#161=COLOUR_RGB('light gray',0.8,0.8,0.8);
#162=AXIS2_PLACEMENT_3D('',#222,#182,#183);
#163=AXIS2_PLACEMENT_3D('MCS',#237,#184,#185);
#164=AXIS2_PLACEMENT_3D('CIP',#238,#186,#187);
#165=AXIS2_PLACEMENT_3D('PCS',#239,#188,#189);
#166=AXIS2_PLACEMENT_3D('',#240,#190,#191);
#167=AXIS2_PLACEMENT_3D('',#242,#192,#193);
#168=AXIS2_PLACEMENT_3D('',#244,#194,#195);
#169=AXIS2_PLACEMENT_3D('',#245,#196,#197);
#170=AXIS2_PLACEMENT_3D('',#246,#198,#199);
#171=AXIS2_PLACEMENT_3D('',#248,#200,#201);
#172=AXIS2_PLACEMENT_3D('',#249,#202,#203);
#173=AXIS2_PLACEMENT_3D('',#251,#204,#205);
#174=AXIS2_PLACEMENT_3D('',#252,#206,#207);
#175=AXIS2_PLACEMENT_3D('',#254,#208,#209);
#176=AXIS2_PLACEMENT_3D('',#255,#210,#211);
#177=AXIS2_PLACEMENT_3D('',#256,#212,#213);
#178=AXIS2_PLACEMENT_3D('',#258,#214,#215);
#179=AXIS2_PLACEMENT_3D('',#259,#216,#217);
#180=AXIS2_PLACEMENT_3D('',#261,#218,#219);
#181=AXIS2_PLACEMENT_3D('',#262,#220,#221);
#182=DIRECTION('',(0.,0.,1.));
#183=DIRECTION('',(1.,0.,0.));
#184=DIRECTION('',(0.,0.,1.));
#185=DIRECTION('',(1.,0.,0.));
#186=DIRECTION('',(0.,0.,1.));
#187=DIRECTION('',(1.,0.,0.));
#188=DIRECTION('',(0.,0.,1.));
#189=DIRECTION('',(1.,0.,0.));
#190=DIRECTION('',(0.,0.,-1.));
#191=DIRECTION('',(-1.,0.,0.));
#192=DIRECTION('',(0.,0.,-1.));
#193=DIRECTION('',(-1.,0.,0.));
#194=DIRECTION('',(0.,0.,-1.));
#195=DIRECTION('',(-1.,0.,3.11782551848053E-17));
#196=DIRECTION('',(0.,0.,1.));
#197=DIRECTION('',(1.,0.,0.));
#198=DIRECTION('',(0.,0.,-1.));
#199=DIRECTION('',(-1.,0.,0.));
#200=DIRECTION('',(0.,0.,-1.));
#201=DIRECTION('',(-1.,0.,0.));
#202=DIRECTION('',(0.,0.,-1.));
#203=DIRECTION('',(-1.,0.,0.));
#204=DIRECTION('',(0.,0.,-1.));
#205=DIRECTION('',(-1.,0.,0.));
#206=DIRECTION('',(0.,0.,-1.));
#207=DIRECTION('',(-1.,0.,0.));
#208=DIRECTION('',(0.,0.,1.));
#209=DIRECTION('',(1.,0.,-1.20567219244055E-16));
#210=DIRECTION('',(0.,0.,-1.));
#211=DIRECTION('',(-1.,0.,0.));
#212=DIRECTION('',(0.,0.,-1.));
#213=DIRECTION('',(-1.,0.,0.));
#214=DIRECTION('',(0.,0.,-1.));
#215=DIRECTION('',(-1.,0.,0.));
#216=DIRECTION('',(0.,0.,-1.));
#217=DIRECTION('',(-1.,0.,0.));
#218=DIRECTION('',(0.,0.,-1.));
#219=DIRECTION('',(-1.,0.,7.02015886197001E-14));
#220=DIRECTION('',(0.,0.,-1.));
#221=DIRECTION('',(-1.,0.,0.));
#222=CARTESIAN_POINT('',(0.,0.,0.));
#223=CARTESIAN_POINT('CRP',(-1.,0.,-39.));
#224=CARTESIAN_POINT('',(0.,0.,-35.));
#225=CARTESIAN_POINT('',(0.,0.,-36.3333333333333));
#226=CARTESIAN_POINT('',(0.,0.,-37.6666666666667));
#227=CARTESIAN_POINT('',(0.,0.,-39.));
#228=CARTESIAN_POINT('',(-0.333333333333333,0.,-39.));
#229=CARTESIAN_POINT('',(-0.666666666666667,0.,-39.));
#230=CARTESIAN_POINT('',(-1.,0.,-39.));
#231=CARTESIAN_POINT('',(-0.999883644716238,0.,-37.6666666666667));
#232=CARTESIAN_POINT('',(-0.999767289432477,0.,-36.3333333333333));
#233=CARTESIAN_POINT('',(-0.999650934148715,0.,-35.));
#234=CARTESIAN_POINT('',(-0.666433956099143,0.,-35.));
#235=CARTESIAN_POINT('',(-0.333216978049572,0.,-35.));
#236=CARTESIAN_POINT('',(0.,0.,-35.));
#237=CARTESIAN_POINT('',(0.,0.,-28.));
#238=CARTESIAN_POINT('',(0.,0.,-39.));
#239=CARTESIAN_POINT('',(0.,0.,0.));
#240=CARTESIAN_POINT('',(0.,0.,0.));
#241=CARTESIAN_POINT('',(-1.2,0.,0.));
#242=CARTESIAN_POINT('',(0.,0.,-0.299999999999998));
#243=CARTESIAN_POINT('',(-1.5,0.,-0.299999999999998));
#244=CARTESIAN_POINT('',(0.,0.,-0.299999999999998));
#245=CARTESIAN_POINT('',(1.2,0.,1.36312540826705E-16));
#246=CARTESIAN_POINT('',(0.,0.,-35.));
#247=CARTESIAN_POINT('',(-1.01500000000001,0.,-35.));
#248=CARTESIAN_POINT('',(0.999650934148714,0.,-35.));
#249=CARTESIAN_POINT('',(0.,0.,-31.317));
#250=CARTESIAN_POINT('',(-1.01500000000001,0.,-31.317));
#251=CARTESIAN_POINT('',(0.,0.,-28.));
#252=CARTESIAN_POINT('',(0.,0.,-29.6256039947372));
#253=CARTESIAN_POINT('',(-1.5,0.,-29.6256039947372));
#254=CARTESIAN_POINT('',(0.,0.,-31.317));
#255=CARTESIAN_POINT('',(0.,0.,-28.));
#256=CARTESIAN_POINT('',(0.,0.,-39.));
#257=CARTESIAN_POINT('',(-0.999999999999999,0.,-39.));
#258=CARTESIAN_POINT('',(-5.32907051820075E-15,0.,-39.));
#259=CARTESIAN_POINT('',(0.,0.,-35.));
#260=CARTESIAN_POINT('',(-0.999650934148714,0.,-35.));
#261=CARTESIAN_POINT('',(0.,0.,-39.));
#262=CARTESIAN_POINT('',(0.,0.,-35.));
#263=MECHANICAL_DESIGN_GEOMETRIC_PRESENTATION_REPRESENTATION('',(#142,#143,
#144,#145,#146,#147,#148),#264);
#264=(
GEOMETRIC_REPRESENTATION_CONTEXT(3)
GLOBAL_UNCERTAINTY_ASSIGNED_CONTEXT((#265))
GLOBAL_UNIT_ASSIGNED_CONTEXT((#271,#267,#266))
REPRESENTATION_CONTEXT('C5141-020F2S','TOP_LEVEL_ASSEMBLY_PART')
);
#265=UNCERTAINTY_MEASURE_WITH_UNIT(LENGTH_MEASURE(2.E-5),#271,
'DISTANCE_ACCURACY_VALUE','Maximum Tolerance applied to model');
#266=(
NAMED_UNIT(*)
SI_UNIT($,.STERADIAN.)
SOLID_ANGLE_UNIT()
);
#267=(
CONVERSION_BASED_UNIT('DEGREE',#269)
NAMED_UNIT(#268)
PLANE_ANGLE_UNIT()
);
#268=DIMENSIONAL_EXPONENTS(0.,0.,0.,0.,0.,0.,0.);
#269=PLANE_ANGLE_MEASURE_WITH_UNIT(PLANE_ANGLE_MEASURE(0.0174532925),#270);
#270=(
NAMED_UNIT(*)
PLANE_ANGLE_UNIT()
SI_UNIT($,.RADIAN.)
);
#271=(
LENGTH_UNIT()
NAMED_UNIT(*)
SI_UNIT(.MILLI.,.METRE.)
);
ENDSEC;
END-ISO-10303-21;
