ISO-10303-21;
HEADER;
/* Generated by software containing ST-Developer
 * from STEP Tools, Inc. (www.steptools.com) 
 */
/* OPTION: using custom schema-name function */

FILE_DESCRIPTION(
/* description */ (''),
/* implementation_level */ '2;1');

FILE_NAME(
/* name */ 'C5141-020F3S.0Z4_Basic.stp',
/* time_stamp */ '2024-08-28T09:37:36+05:00',
/* author */ (''),
/* organization */ (''),
/* preprocessor_version */ 'ST-DEVELOPER v16.7',
/* originating_system */ 'SIEMENS PLM Software NX 12.0',
/* authorisation */ '');

FILE_SCHEMA (('AUTOMOTIVE_DESIGN { 1 0 10303 214 3 1 1 1 }'));
ENDSEC;

DATA;
#10=CONSTRUCTIVE_GEOMETRY_REPRESENTATION_RELATIONSHIP(
'supplemental geometry','',#34,#11);
#11=CONSTRUCTIVE_GEOMETRY_REPRESENTATION('supplemental geometry',(#175,
#176,#177),#279);
#12=GEOMETRICALLY_BOUNDED_WIREFRAME_SHAPE_REPRESENTATION(
'inpu010852CAwrqn-None',(#35),#279);
#13=PROPERTY_DEFINITION_REPRESENTATION(#17,#15);
#14=PROPERTY_DEFINITION_REPRESENTATION(#18,#16);
#15=REPRESENTATION('',(#19),#279);
#16=REPRESENTATION('',(#20),#279);
#17=PROPERTY_DEFINITION('pmi validation property','',#25);
#18=PROPERTY_DEFINITION('pmi validation property','',#25);
#19=VALUE_REPRESENTATION_ITEM('number of annotations',COUNT_MEASURE(0.));
#20=VALUE_REPRESENTATION_ITEM('number of views',COUNT_MEASURE(0.));
#21=SHAPE_REPRESENTATION_RELATIONSHIP('None',
'relationship between inpu010852CAwrqn-None and inpu010852CAwrqn-None',
#34,#23);
#22=SHAPE_REPRESENTATION_RELATIONSHIP('None',
'relationship between inpu010852CAwrqn-None and inpu010852CAwrqn-None',
#34,#12);
#23=ADVANCED_BREP_SHAPE_REPRESENTATION('inpu010852CAwrqn-None',(#46,#47),
#279);
#24=SHAPE_DEFINITION_REPRESENTATION(#25,#34);
#25=PRODUCT_DEFINITION_SHAPE('','',#26);
#26=PRODUCT_DEFINITION(' ','',#28,#27);
#27=PRODUCT_DEFINITION_CONTEXT('part definition',#33,'design');
#28=PRODUCT_DEFINITION_FORMATION_WITH_SPECIFIED_SOURCE(' ',' ',#30,
 .NOT_KNOWN.);
#29=PRODUCT_RELATED_PRODUCT_CATEGORY('part','',(#30));
#30=PRODUCT('inpu010852CAwrqn','inpu010852CAwrqn',' ',(#31));
#31=PRODUCT_CONTEXT(' ',#33,'mechanical');
#32=APPLICATION_PROTOCOL_DEFINITION('international standard',
'automotive_design',2010,#33);
#33=APPLICATION_CONTEXT(
'core data for automotive mechanical design processes');
#34=SHAPE_REPRESENTATION('inpu010852CAwrqn-None',(#174),#279);
#35=GEOMETRIC_CURVE_SET('None',(#235,#236,#237,#238,#140));
#36=SURFACE_STYLE_USAGE(.BOTH.,#38);
#37=SURFACE_STYLE_USAGE(.BOTH.,#39);
#38=SURFACE_SIDE_STYLE('',(#40));
#39=SURFACE_SIDE_STYLE('',(#41));
#40=SURFACE_STYLE_FILL_AREA(#42);
#41=SURFACE_STYLE_FILL_AREA(#43);
#42=FILL_AREA_STYLE('',(#44));
#43=FILL_AREA_STYLE('',(#45));
#44=FILL_AREA_STYLE_COLOUR('',#172);
#45=FILL_AREA_STYLE_COLOUR('',#173);
#46=MANIFOLD_SOLID_BREP('NOCUT',#48);
#47=MANIFOLD_SOLID_BREP('CUT',#49);
#48=CLOSED_SHELL('',(#60,#61,#62,#63,#64,#65));
#49=CLOSED_SHELL('',(#66,#67,#68));
#50=CYLINDRICAL_SURFACE('',#185,1.01500000000001);
#51=CYLINDRICAL_SURFACE('',#188,1.5);
#52=PLANE('',#181);
#53=PLANE('',#183);
#54=PLANE('',#190);
#55=PLANE('',#193);
#56=FACE_OUTER_BOUND('',#84,.T.);
#57=FACE_OUTER_BOUND('',#85,.T.);
#58=FACE_OUTER_BOUND('',#92,.T.);
#59=FACE_OUTER_BOUND('',#95,.T.);
#60=ADVANCED_FACE('',(#72,#73),#69,.T.);
#61=ADVANCED_FACE('',(#56),#52,.T.);
#62=ADVANCED_FACE('',(#57),#53,.T.);
#63=ADVANCED_FACE('',(#74,#75),#50,.T.);
#64=ADVANCED_FACE('',(#76,#77),#70,.T.);
#65=ADVANCED_FACE('',(#78,#79),#51,.T.);
#66=ADVANCED_FACE('',(#58),#54,.T.);
#67=ADVANCED_FACE('',(#80,#81),#71,.T.);
#68=ADVANCED_FACE('',(#59),#55,.F.);
#69=CONICAL_SURFACE('',#180,1.5,45.);
#70=CONICAL_SURFACE('',#187,1.01500000000001,16.);
#71=CONICAL_SURFACE('',#192,0.999999999999999,0.00500000000000973);
#72=FACE_BOUND('',#82,.T.);
#73=FACE_BOUND('',#83,.T.);
#74=FACE_BOUND('',#86,.T.);
#75=FACE_BOUND('',#87,.T.);
#76=FACE_BOUND('',#88,.T.);
#77=FACE_BOUND('',#89,.T.);
#78=FACE_BOUND('',#90,.T.);
#79=FACE_BOUND('',#91,.T.);
#80=FACE_BOUND('',#93,.T.);
#81=FACE_BOUND('',#94,.T.);
#82=EDGE_LOOP('',(#96));
#83=EDGE_LOOP('',(#97));
#84=EDGE_LOOP('',(#98));
#85=EDGE_LOOP('',(#99));
#86=EDGE_LOOP('',(#100));
#87=EDGE_LOOP('',(#101));
#88=EDGE_LOOP('',(#102));
#89=EDGE_LOOP('',(#103));
#90=EDGE_LOOP('',(#104));
#91=EDGE_LOOP('',(#105));
#92=EDGE_LOOP('',(#106));
#93=EDGE_LOOP('',(#107));
#94=EDGE_LOOP('',(#108));
#95=EDGE_LOOP('',(#109));
#96=ORIENTED_EDGE('',*,*,#117,.T.);
#97=ORIENTED_EDGE('',*,*,#118,.F.);
#98=ORIENTED_EDGE('',*,*,#117,.F.);
#99=ORIENTED_EDGE('',*,*,#119,.T.);
#100=ORIENTED_EDGE('',*,*,#120,.T.);
#101=ORIENTED_EDGE('',*,*,#119,.F.);
#102=ORIENTED_EDGE('',*,*,#121,.T.);
#103=ORIENTED_EDGE('',*,*,#120,.F.);
#104=ORIENTED_EDGE('',*,*,#118,.T.);
#105=ORIENTED_EDGE('',*,*,#121,.F.);
#106=ORIENTED_EDGE('',*,*,#122,.T.);
#107=ORIENTED_EDGE('',*,*,#123,.T.);
#108=ORIENTED_EDGE('',*,*,#122,.F.);
#109=ORIENTED_EDGE('',*,*,#123,.F.);
#110=VERTEX_POINT('',#256);
#111=VERTEX_POINT('',#258);
#112=VERTEX_POINT('',#262);
#113=VERTEX_POINT('',#265);
#114=VERTEX_POINT('',#268);
#115=VERTEX_POINT('',#272);
#116=VERTEX_POINT('',#275);
#117=EDGE_CURVE('',#110,#110,#124,.T.);
#118=EDGE_CURVE('',#111,#111,#125,.T.);
#119=EDGE_CURVE('',#112,#112,#126,.T.);
#120=EDGE_CURVE('',#113,#113,#127,.T.);
#121=EDGE_CURVE('',#114,#114,#128,.T.);
#122=EDGE_CURVE('',#115,#115,#129,.T.);
#123=EDGE_CURVE('',#116,#116,#130,.T.);
#124=CIRCLE('',#178,1.2);
#125=CIRCLE('',#179,1.5);
#126=CIRCLE('',#182,1.01500000000001);
#127=CIRCLE('',#184,1.01500000000001);
#128=CIRCLE('',#186,1.5);
#129=CIRCLE('',#189,0.999999999999999);
#130=CIRCLE('',#191,0.999450221284224);
#131=CURVE_STYLE('',#136,POSITIVE_LENGTH_MEASURE(0.18),#135);
#132=CURVE_STYLE('',#137,POSITIVE_LENGTH_MEASURE(0.18),#171);
#133=CURVE_STYLE('',#138,POSITIVE_LENGTH_MEASURE(0.18),#171);
#134=CURVE_STYLE('',#139,POSITIVE_LENGTH_MEASURE(0.18),#171);
#135=DRAUGHTING_PRE_DEFINED_COLOUR('blue');
#136=DRAUGHTING_PRE_DEFINED_CURVE_FONT('continuous');
#137=DRAUGHTING_PRE_DEFINED_CURVE_FONT('continuous');
#138=DRAUGHTING_PRE_DEFINED_CURVE_FONT('continuous');
#139=DRAUGHTING_PRE_DEFINED_CURVE_FONT('continuous');
#140=B_SPLINE_CURVE_WITH_KNOTS('CUTTING PART LINE',3,(#239,#240,#241,#242,
#243,#244,#245,#246,#247,#248,#249,#250,#251),.UNSPECIFIED.,.T.,.F.,(1,
3,3,3,3,3,1),(-0.068458072354412,0.,0.431523098076982,0.500018827924709,
0.931541927645588,1.,1.43152309807698),.UNSPECIFIED.);
#141=PRESENTATION_LAYER_ASSIGNMENT('1','Layer 1',(#235,#236,#237,#238,#140,
#175,#176,#177,#46,#47));
#142=STYLED_ITEM('',(#152),#235);
#143=STYLED_ITEM('',(#153),#236);
#144=STYLED_ITEM('',(#154),#237);
#145=STYLED_ITEM('',(#155),#238);
#146=STYLED_ITEM('',(#156),#140);
#147=STYLED_ITEM('',(#157),#175);
#148=STYLED_ITEM('',(#158),#176);
#149=STYLED_ITEM('',(#159),#177);
#150=STYLED_ITEM('',(#160),#46);
#151=STYLED_ITEM('',(#161),#47);
#152=PRESENTATION_STYLE_ASSIGNMENT((#162));
#153=PRESENTATION_STYLE_ASSIGNMENT((#163));
#154=PRESENTATION_STYLE_ASSIGNMENT((#164));
#155=PRESENTATION_STYLE_ASSIGNMENT((#165));
#156=PRESENTATION_STYLE_ASSIGNMENT((#131));
#157=PRESENTATION_STYLE_ASSIGNMENT((#132));
#158=PRESENTATION_STYLE_ASSIGNMENT((#133));
#159=PRESENTATION_STYLE_ASSIGNMENT((#134));
#160=PRESENTATION_STYLE_ASSIGNMENT((#36));
#161=PRESENTATION_STYLE_ASSIGNMENT((#37));
#162=POINT_STYLE('',#166,POSITIVE_LENGTH_MEASURE(3.),#170);
#163=POINT_STYLE('',#167,POSITIVE_LENGTH_MEASURE(3.),#171);
#164=POINT_STYLE('',#168,POSITIVE_LENGTH_MEASURE(3.),#171);
#165=POINT_STYLE('',#169,POSITIVE_LENGTH_MEASURE(3.),#171);
#166=PRE_DEFINED_POINT_MARKER_SYMBOL('plus');
#167=PRE_DEFINED_POINT_MARKER_SYMBOL('plus');
#168=PRE_DEFINED_POINT_MARKER_SYMBOL('plus');
#169=PRE_DEFINED_POINT_MARKER_SYMBOL('plus');
#170=COLOUR_RGB('Pale Royal',0.219592584115358,0.470572976272221,0.752941176470588);
#171=COLOUR_RGB('Pale Maroon',0.811749446860456,0.603921568627451,0.611749446860456);
#172=COLOUR_RGB('Medium Gray',0.490196078431373,0.490196078431373,0.490196078431373);
#173=COLOUR_RGB('Light Gray',0.8,0.8,0.8);
#174=AXIS2_PLACEMENT_3D('',#234,#194,#195);
#175=AXIS2_PLACEMENT_3D('MCS',#252,#196,#197);
#176=AXIS2_PLACEMENT_3D('CIP',#253,#198,#199);
#177=AXIS2_PLACEMENT_3D('PCS',#254,#200,#201);
#178=AXIS2_PLACEMENT_3D('',#255,#202,#203);
#179=AXIS2_PLACEMENT_3D('',#257,#204,#205);
#180=AXIS2_PLACEMENT_3D('',#259,#206,#207);
#181=AXIS2_PLACEMENT_3D('',#260,#208,#209);
#182=AXIS2_PLACEMENT_3D('',#261,#210,#211);
#183=AXIS2_PLACEMENT_3D('',#263,#212,#213);
#184=AXIS2_PLACEMENT_3D('',#264,#214,#215);
#185=AXIS2_PLACEMENT_3D('',#266,#216,#217);
#186=AXIS2_PLACEMENT_3D('',#267,#218,#219);
#187=AXIS2_PLACEMENT_3D('',#269,#220,#221);
#188=AXIS2_PLACEMENT_3D('',#270,#222,#223);
#189=AXIS2_PLACEMENT_3D('',#271,#224,#225);
#190=AXIS2_PLACEMENT_3D('',#273,#226,#227);
#191=AXIS2_PLACEMENT_3D('',#274,#228,#229);
#192=AXIS2_PLACEMENT_3D('',#276,#230,#231);
#193=AXIS2_PLACEMENT_3D('',#277,#232,#233);
#194=DIRECTION('',(0.,0.,1.));
#195=DIRECTION('',(1.,0.,0.));
#196=DIRECTION('',(0.,0.,1.));
#197=DIRECTION('',(1.,0.,0.));
#198=DIRECTION('',(0.,0.,1.));
#199=DIRECTION('',(1.,0.,0.));
#200=DIRECTION('',(0.,0.,1.));
#201=DIRECTION('',(1.,0.,0.));
#202=DIRECTION('',(0.,0.,-1.));
#203=DIRECTION('',(-1.,0.,0.));
#204=DIRECTION('',(0.,0.,-1.));
#205=DIRECTION('',(-1.,0.,0.));
#206=DIRECTION('',(0.,0.,-1.));
#207=DIRECTION('',(1.,0.,3.10158684390511E-17));
#208=DIRECTION('',(0.,0.,1.));
#209=DIRECTION('',(-1.,0.,0.));
#210=DIRECTION('',(0.,0.,-1.));
#211=DIRECTION('',(-1.,0.,0.));
#212=DIRECTION('',(0.,0.,-1.));
#213=DIRECTION('',(1.,0.,0.));
#214=DIRECTION('',(0.,0.,-1.));
#215=DIRECTION('',(-1.,0.,0.));
#216=DIRECTION('',(0.,0.,-1.));
#217=DIRECTION('',(1.,0.,0.));
#218=DIRECTION('',(0.,0.,-1.));
#219=DIRECTION('',(-1.,0.,0.));
#220=DIRECTION('',(0.,0.,1.));
#221=DIRECTION('',(-1.,0.,1.44680663092866E-16));
#222=DIRECTION('',(0.,0.,-1.));
#223=DIRECTION('',(1.,0.,0.));
#224=DIRECTION('',(0.,0.,-1.));
#225=DIRECTION('',(-1.,0.,0.));
#226=DIRECTION('',(0.,0.,-1.));
#227=DIRECTION('',(1.,0.,0.));
#228=DIRECTION('',(0.,0.,-1.));
#229=DIRECTION('',(-1.,0.,0.));
#230=DIRECTION('',(0.,0.,-1.));
#231=DIRECTION('',(1.,0.,7.0201588619695E-14));
#232=DIRECTION('',(0.,0.,-1.));
#233=DIRECTION('',(1.,0.,0.));
#234=CARTESIAN_POINT('',(0.,0.,0.));
#235=CARTESIAN_POINT('CRP',(-1.,0.,-39.));
#236=CARTESIAN_POINT('',(0.,0.,-27.3256039947372));
#237=CARTESIAN_POINT('',(0.,0.,-39.));
#238=CARTESIAN_POINT('',(0.,0.,0.));
#239=CARTESIAN_POINT('',(0.,0.,-32.7));
#240=CARTESIAN_POINT('',(0.,0.,-34.8));
#241=CARTESIAN_POINT('',(0.,0.,-36.9));
#242=CARTESIAN_POINT('',(0.,0.,-39.));
#243=CARTESIAN_POINT('',(-0.333333333333333,0.,-39.));
#244=CARTESIAN_POINT('',(-0.666666666666667,0.,-39.));
#245=CARTESIAN_POINT('',(-1.,0.,-39.));
#246=CARTESIAN_POINT('',(-0.999816740428076,0.,-36.9));
#247=CARTESIAN_POINT('',(-0.999633480856151,0.,-34.8));
#248=CARTESIAN_POINT('',(-0.999450221284227,0.,-32.7));
#249=CARTESIAN_POINT('',(-0.666300147522818,0.,-32.7));
#250=CARTESIAN_POINT('',(-0.333150073761409,0.,-32.7));
#251=CARTESIAN_POINT('',(0.,0.,-32.7));
#252=CARTESIAN_POINT('',(0.,0.,-27.3256039947372));
#253=CARTESIAN_POINT('',(0.,0.,-39.));
#254=CARTESIAN_POINT('',(0.,0.,0.));
#255=CARTESIAN_POINT('',(0.,0.,0.));
#256=CARTESIAN_POINT('',(-1.2,0.,0.));
#257=CARTESIAN_POINT('',(0.,0.,-0.299999999999998));
#258=CARTESIAN_POINT('',(-1.5,0.,-0.299999999999998));
#259=CARTESIAN_POINT('',(0.,0.,-0.299999999999998));
#260=CARTESIAN_POINT('',(1.2,0.,1.36312540826705E-16));
#261=CARTESIAN_POINT('',(0.,0.,-32.7));
#262=CARTESIAN_POINT('',(-1.01500000000001,0.,-32.7));
#263=CARTESIAN_POINT('',(0.999450221284224,0.,-32.7));
#264=CARTESIAN_POINT('',(0.,0.,-29.017));
#265=CARTESIAN_POINT('',(-1.01500000000001,0.,-29.017));
#266=CARTESIAN_POINT('',(0.,0.,-28.));
#267=CARTESIAN_POINT('',(0.,0.,-27.3256039947372));
#268=CARTESIAN_POINT('',(-1.5,0.,-27.3256039947372));
#269=CARTESIAN_POINT('',(0.,0.,-29.017));
#270=CARTESIAN_POINT('',(0.,0.,-28.));
#271=CARTESIAN_POINT('',(0.,0.,-39.));
#272=CARTESIAN_POINT('',(-0.999999999999999,0.,-39.));
#273=CARTESIAN_POINT('',(-5.32907051820075E-15,0.,-39.));
#274=CARTESIAN_POINT('',(0.,0.,-32.7));
#275=CARTESIAN_POINT('',(-0.999450221284224,0.,-32.7));
#276=CARTESIAN_POINT('',(0.,0.,-39.));
#277=CARTESIAN_POINT('',(0.,0.,-32.7));
#278=MECHANICAL_DESIGN_GEOMETRIC_PRESENTATION_REPRESENTATION('',(#142,#143,
#144,#145,#146,#147,#148,#149,#150,#151),#279);
#279=(
GEOMETRIC_REPRESENTATION_CONTEXT(3)
GLOBAL_UNCERTAINTY_ASSIGNED_CONTEXT((#280))
GLOBAL_UNIT_ASSIGNED_CONTEXT((#286,#282,#281))
REPRESENTATION_CONTEXT('C5141-020F3S','TOP_LEVEL_ASSEMBLY_PART')
);
#280=UNCERTAINTY_MEASURE_WITH_UNIT(LENGTH_MEASURE(2.E-5),#286,
'DISTANCE_ACCURACY_VALUE','Maximum Tolerance applied to model');
#281=(
NAMED_UNIT(*)
SI_UNIT($,.STERADIAN.)
SOLID_ANGLE_UNIT()
);
#282=(
CONVERSION_BASED_UNIT('DEGREE',#284)
NAMED_UNIT(#283)
PLANE_ANGLE_UNIT()
);
#283=DIMENSIONAL_EXPONENTS(0.,0.,0.,0.,0.,0.,0.);
#284=PLANE_ANGLE_MEASURE_WITH_UNIT(PLANE_ANGLE_MEASURE(0.0174532925),#285);
#285=(
NAMED_UNIT(*)
PLANE_ANGLE_UNIT()
SI_UNIT($,.RADIAN.)
);
#286=(
LENGTH_UNIT()
NAMED_UNIT(*)
SI_UNIT(.MILLI.,.METRE.)
);
ENDSEC;
END-ISO-10303-21;
