ISO-10303-21;
HEADER;
/* Generated by software containing ST-Developer
 * from STEP Tools, Inc. (www.steptools.com) 
 */
/* OPTION: using custom schema-name function */

FILE_DESCRIPTION(
/* description */ (''),
/* implementation_level */ '2;1');

FILE_NAME(
/* name */ 'C5141-030D4S.0Z4_Basic.stp',
/* time_stamp */ '2024-08-16T13:42:04+05:00',
/* author */ (''),
/* organization */ (''),
/* preprocessor_version */ 'ST-DEVELOPER v16.7',
/* originating_system */ 'SIEMENS PLM Software NX 12.0',
/* authorisation */ '');

FILE_SCHEMA (('AUTOMOTIVE_DESIGN { 1 0 10303 214 3 1 1 1 }'));
ENDSEC;

DATA;
#10=CONSTRUCTIVE_GEOMETRY_REPRESENTATION_RELATIONSHIP(
'supplemental geometry','',#34,#11);
#11=CONSTRUCTIVE_GEOMETRY_REPRESENTATION('supplemental geometry',(#164,
#165,#166),#259);
#12=GEOMETRICALLY_BOUNDED_WIREFRAME_SHAPE_REPRESENTATION(
'inpu1F0CA168ahx1-None',(#35),#259);
#13=PROPERTY_DEFINITION_REPRESENTATION(#17,#15);
#14=PROPERTY_DEFINITION_REPRESENTATION(#18,#16);
#15=REPRESENTATION('',(#19),#259);
#16=REPRESENTATION('',(#20),#259);
#17=PROPERTY_DEFINITION('pmi validation property','',#25);
#18=PROPERTY_DEFINITION('pmi validation property','',#25);
#19=VALUE_REPRESENTATION_ITEM('number of annotations',COUNT_MEASURE(0.));
#20=VALUE_REPRESENTATION_ITEM('number of views',COUNT_MEASURE(0.));
#21=SHAPE_REPRESENTATION_RELATIONSHIP('None',
'relationship between inpu1F0CA168ahx1-None and inpu1F0CA168ahx1-None',
#34,#23);
#22=SHAPE_REPRESENTATION_RELATIONSHIP('None',
'relationship between inpu1F0CA168ahx1-None and inpu1F0CA168ahx1-None',
#34,#12);
#23=ADVANCED_BREP_SHAPE_REPRESENTATION('inpu1F0CA168ahx1-None',(#47,#48),
#259);
#24=SHAPE_DEFINITION_REPRESENTATION(#25,#34);
#25=PRODUCT_DEFINITION_SHAPE('','',#26);
#26=PRODUCT_DEFINITION(' ','',#28,#27);
#27=PRODUCT_DEFINITION_CONTEXT('part definition',#33,'design');
#28=PRODUCT_DEFINITION_FORMATION_WITH_SPECIFIED_SOURCE(' ',' ',#30,
 .NOT_KNOWN.);
#29=PRODUCT_RELATED_PRODUCT_CATEGORY('part','',(#30));
#30=PRODUCT('inpu1F0CA168ahx1','inpu1F0CA168ahx1',' ',(#31));
#31=PRODUCT_CONTEXT(' ',#33,'mechanical');
#32=APPLICATION_PROTOCOL_DEFINITION('international standard',
'automotive_design',2010,#33);
#33=APPLICATION_CONTEXT(
'core data for automotive mechanical design processes');
#34=SHAPE_REPRESENTATION('inpu1F0CA168ahx1-None',(#163),#259);
#35=GEOMETRIC_CURVE_SET('None',(#218,#219,#220,#221,#129));
#36=CYLINDRICAL_SURFACE('',#179,1.5);
#37=SURFACE_STYLE_USAGE(.BOTH.,#39);
#38=SURFACE_STYLE_USAGE(.BOTH.,#40);
#39=SURFACE_SIDE_STYLE('',(#41));
#40=SURFACE_SIDE_STYLE('',(#42));
#41=SURFACE_STYLE_FILL_AREA(#43);
#42=SURFACE_STYLE_FILL_AREA(#44);
#43=FILL_AREA_STYLE('',(#45));
#44=FILL_AREA_STYLE('',(#46));
#45=FILL_AREA_STYLE_COLOUR('',#161);
#46=FILL_AREA_STYLE_COLOUR('',#162);
#47=MANIFOLD_SOLID_BREP('CUT',#49);
#48=MANIFOLD_SOLID_BREP('NOCUT',#50);
#49=CLOSED_SHELL('',(#61,#62,#63));
#50=CLOSED_SHELL('',(#64,#65,#66,#67,#68));
#51=CONICAL_SURFACE('',#170,1.5,0.00500000000000006);
#52=CONICAL_SURFACE('',#174,1.5,45.);
#53=FACE_BOUND('',#79,.T.);
#54=FACE_BOUND('',#80,.T.);
#55=FACE_BOUND('',#82,.T.);
#56=FACE_BOUND('',#83,.T.);
#57=FACE_BOUND('',#85,.T.);
#58=FACE_BOUND('',#86,.T.);
#59=FACE_BOUND('',#87,.T.);
#60=FACE_BOUND('',#88,.T.);
#61=ADVANCED_FACE('',(#74),#69,.T.);
#62=ADVANCED_FACE('',(#53,#54),#51,.T.);
#63=ADVANCED_FACE('',(#75),#70,.F.);
#64=ADVANCED_FACE('',(#55,#56),#52,.T.);
#65=ADVANCED_FACE('',(#76),#71,.T.);
#66=ADVANCED_FACE('',(#57,#58),#72,.T.);
#67=ADVANCED_FACE('',(#59,#60),#36,.T.);
#68=ADVANCED_FACE('',(#77),#73,.T.);
#69=PLANE('',#168);
#70=PLANE('',#171);
#71=PLANE('',#175);
#72=PLANE('',#178);
#73=PLANE('',#180);
#74=FACE_OUTER_BOUND('',#78,.T.);
#75=FACE_OUTER_BOUND('',#81,.T.);
#76=FACE_OUTER_BOUND('',#84,.T.);
#77=FACE_OUTER_BOUND('',#89,.T.);
#78=EDGE_LOOP('',(#90));
#79=EDGE_LOOP('',(#91));
#80=EDGE_LOOP('',(#92));
#81=EDGE_LOOP('',(#93));
#82=EDGE_LOOP('',(#94));
#83=EDGE_LOOP('',(#95));
#84=EDGE_LOOP('',(#96));
#85=EDGE_LOOP('',(#97));
#86=EDGE_LOOP('',(#98));
#87=EDGE_LOOP('',(#99));
#88=EDGE_LOOP('',(#100));
#89=EDGE_LOOP('',(#101));
#90=ORIENTED_EDGE('',*,*,#108,.T.);
#91=ORIENTED_EDGE('',*,*,#109,.F.);
#92=ORIENTED_EDGE('',*,*,#108,.F.);
#93=ORIENTED_EDGE('',*,*,#109,.T.);
#94=ORIENTED_EDGE('',*,*,#110,.T.);
#95=ORIENTED_EDGE('',*,*,#111,.F.);
#96=ORIENTED_EDGE('',*,*,#110,.F.);
#97=ORIENTED_EDGE('',*,*,#112,.T.);
#98=ORIENTED_EDGE('',*,*,#113,.F.);
#99=ORIENTED_EDGE('',*,*,#111,.T.);
#100=ORIENTED_EDGE('',*,*,#112,.F.);
#101=ORIENTED_EDGE('',*,*,#113,.T.);
#102=VERTEX_POINT('',#239);
#103=VERTEX_POINT('',#242);
#104=VERTEX_POINT('',#246);
#105=VERTEX_POINT('',#248);
#106=VERTEX_POINT('',#252);
#107=VERTEX_POINT('',#254);
#108=EDGE_CURVE('',#102,#102,#114,.T.);
#109=EDGE_CURVE('',#103,#103,#115,.T.);
#110=EDGE_CURVE('',#104,#104,#116,.T.);
#111=EDGE_CURVE('',#105,#105,#117,.T.);
#112=EDGE_CURVE('',#106,#106,#118,.T.);
#113=EDGE_CURVE('',#107,#107,#119,.T.);
#114=CIRCLE('',#167,1.5);
#115=CIRCLE('',#169,1.49895280244614);
#116=CIRCLE('',#172,1.2);
#117=CIRCLE('',#173,1.5);
#118=CIRCLE('',#176,1.5);
#119=CIRCLE('',#177,1.49895280244614);
#120=CURVE_STYLE('',#125,POSITIVE_LENGTH_MEASURE(0.18),#124);
#121=CURVE_STYLE('',#126,POSITIVE_LENGTH_MEASURE(0.18),#160);
#122=CURVE_STYLE('',#127,POSITIVE_LENGTH_MEASURE(0.18),#160);
#123=CURVE_STYLE('',#128,POSITIVE_LENGTH_MEASURE(0.18),#160);
#124=DRAUGHTING_PRE_DEFINED_COLOUR('blue');
#125=DRAUGHTING_PRE_DEFINED_CURVE_FONT('continuous');
#126=DRAUGHTING_PRE_DEFINED_CURVE_FONT('continuous');
#127=DRAUGHTING_PRE_DEFINED_CURVE_FONT('continuous');
#128=DRAUGHTING_PRE_DEFINED_CURVE_FONT('continuous');
#129=B_SPLINE_CURVE_WITH_KNOTS('CUTTING PART LINE',3,(#222,#223,#224,#225,
#226,#227,#228,#229,#230,#231,#232,#233,#234),.UNSPECIFIED.,.T.,.F.,(1,
3,3,3,3,3,1),(-0.0555189236727061,0.,0.44446168218253,0.500019392452105,
0.944481076327294,1.,1.44446168218253),.UNSPECIFIED.);
#130=PRESENTATION_LAYER_ASSIGNMENT('1','Layer 1',(#218,#219,#220,#221,#129,
#164,#165,#166,#47,#48));
#131=STYLED_ITEM('',(#141),#218);
#132=STYLED_ITEM('',(#142),#219);
#133=STYLED_ITEM('',(#143),#220);
#134=STYLED_ITEM('',(#144),#221);
#135=STYLED_ITEM('',(#145),#129);
#136=STYLED_ITEM('',(#146),#164);
#137=STYLED_ITEM('',(#147),#165);
#138=STYLED_ITEM('',(#148),#166);
#139=STYLED_ITEM('',(#149),#47);
#140=STYLED_ITEM('',(#150),#48);
#141=PRESENTATION_STYLE_ASSIGNMENT((#151));
#142=PRESENTATION_STYLE_ASSIGNMENT((#152));
#143=PRESENTATION_STYLE_ASSIGNMENT((#153));
#144=PRESENTATION_STYLE_ASSIGNMENT((#154));
#145=PRESENTATION_STYLE_ASSIGNMENT((#120));
#146=PRESENTATION_STYLE_ASSIGNMENT((#121));
#147=PRESENTATION_STYLE_ASSIGNMENT((#122));
#148=PRESENTATION_STYLE_ASSIGNMENT((#123));
#149=PRESENTATION_STYLE_ASSIGNMENT((#37));
#150=PRESENTATION_STYLE_ASSIGNMENT((#38));
#151=POINT_STYLE('',#155,POSITIVE_LENGTH_MEASURE(3.),#159);
#152=POINT_STYLE('',#156,POSITIVE_LENGTH_MEASURE(3.),#160);
#153=POINT_STYLE('',#157,POSITIVE_LENGTH_MEASURE(3.),#160);
#154=POINT_STYLE('',#158,POSITIVE_LENGTH_MEASURE(3.),#160);
#155=PRE_DEFINED_POINT_MARKER_SYMBOL('plus');
#156=PRE_DEFINED_POINT_MARKER_SYMBOL('plus');
#157=PRE_DEFINED_POINT_MARKER_SYMBOL('plus');
#158=PRE_DEFINED_POINT_MARKER_SYMBOL('plus');
#159=COLOUR_RGB('Pale Royal',0.219592584115358,0.470572976272221,0.752941176470588);
#160=COLOUR_RGB('Pale Maroon',0.811749446860456,0.603921568627451,0.611749446860456);
#161=COLOUR_RGB('Light Gray',0.8,0.8,0.8);
#162=COLOUR_RGB('Medium Gray',0.490196078431373,0.490196078431373,0.490196078431373);
#163=AXIS2_PLACEMENT_3D('',#217,#181,#182);
#164=AXIS2_PLACEMENT_3D('MCS',#235,#183,#184);
#165=AXIS2_PLACEMENT_3D('PCS',#236,#185,#186);
#166=AXIS2_PLACEMENT_3D('CIP',#237,#187,#188);
#167=AXIS2_PLACEMENT_3D('',#238,#189,#190);
#168=AXIS2_PLACEMENT_3D('',#240,#191,#192);
#169=AXIS2_PLACEMENT_3D('',#241,#193,#194);
#170=AXIS2_PLACEMENT_3D('',#243,#195,#196);
#171=AXIS2_PLACEMENT_3D('',#244,#197,#198);
#172=AXIS2_PLACEMENT_3D('',#245,#199,#200);
#173=AXIS2_PLACEMENT_3D('',#247,#201,#202);
#174=AXIS2_PLACEMENT_3D('',#249,#203,#204);
#175=AXIS2_PLACEMENT_3D('',#250,#205,#206);
#176=AXIS2_PLACEMENT_3D('',#251,#207,#208);
#177=AXIS2_PLACEMENT_3D('',#253,#209,#210);
#178=AXIS2_PLACEMENT_3D('',#255,#211,#212);
#179=AXIS2_PLACEMENT_3D('',#256,#213,#214);
#180=AXIS2_PLACEMENT_3D('',#257,#215,#216);
#181=DIRECTION('',(0.,0.,1.));
#182=DIRECTION('',(1.,0.,0.));
#183=DIRECTION('',(0.,0.,1.));
#184=DIRECTION('',(1.,0.,0.));
#185=DIRECTION('',(0.,0.,1.));
#186=DIRECTION('',(1.,0.,0.));
#187=DIRECTION('',(0.,0.,1.));
#188=DIRECTION('',(1.,0.,0.));
#189=DIRECTION('',(0.,0.,-1.));
#190=DIRECTION('',(-1.,0.,0.));
#191=DIRECTION('',(0.,0.,-1.));
#192=DIRECTION('',(1.,0.,0.));
#193=DIRECTION('',(0.,0.,1.));
#194=DIRECTION('',(-1.,0.,0.));
#195=DIRECTION('',(0.,0.,-1.));
#196=DIRECTION('',(1.,0.,4.80875988567873E-14));
#197=DIRECTION('',(0.,0.,-1.));
#198=DIRECTION('',(1.,0.,0.));
#199=DIRECTION('',(0.,0.,-1.));
#200=DIRECTION('',(-1.,0.,0.));
#201=DIRECTION('',(0.,0.,-1.));
#202=DIRECTION('',(-1.,0.,0.));
#203=DIRECTION('',(0.,0.,-1.));
#204=DIRECTION('',(1.,0.,3.10158684390511E-17));
#205=DIRECTION('',(0.,0.,1.));
#206=DIRECTION('',(-1.,0.,0.));
#207=DIRECTION('',(0.,0.,-1.));
#208=DIRECTION('',(-1.,0.,0.));
#209=DIRECTION('',(0.,0.,-1.));
#210=DIRECTION('',(-1.,0.,0.));
#211=DIRECTION('',(0.,0.,-1.));
#212=DIRECTION('',(1.,0.,0.));
#213=DIRECTION('',(0.,0.,-1.));
#214=DIRECTION('',(1.,0.,0.));
#215=DIRECTION('',(0.,0.,-1.));
#216=DIRECTION('',(1.,0.,0.));
#217=CARTESIAN_POINT('',(0.,0.,0.));
#218=CARTESIAN_POINT('CRP',(-1.5,0.,-39.));
#219=CARTESIAN_POINT('',(0.,0.,-25.));
#220=CARTESIAN_POINT('',(0.,0.,0.));
#221=CARTESIAN_POINT('',(0.,0.,-39.));
#222=CARTESIAN_POINT('',(0.,0.,-27.));
#223=CARTESIAN_POINT('',(0.,0.,-31.));
#224=CARTESIAN_POINT('',(0.,0.,-35.));
#225=CARTESIAN_POINT('',(0.,0.,-39.));
#226=CARTESIAN_POINT('',(-0.5,0.,-39.));
#227=CARTESIAN_POINT('',(-1.,0.,-39.));
#228=CARTESIAN_POINT('',(-1.5,0.,-39.));
#229=CARTESIAN_POINT('',(-1.49965093414872,0.,-35.));
#230=CARTESIAN_POINT('',(-1.49930186829743,0.,-31.));
#231=CARTESIAN_POINT('',(-1.49895280244615,0.,-27.));
#232=CARTESIAN_POINT('',(-0.999301868297431,0.,-27.));
#233=CARTESIAN_POINT('',(-0.499650934148715,0.,-27.));
#234=CARTESIAN_POINT('',(0.,0.,-27.));
#235=CARTESIAN_POINT('',(0.,0.,-25.));
#236=CARTESIAN_POINT('',(0.,0.,0.));
#237=CARTESIAN_POINT('',(0.,0.,-39.));
#238=CARTESIAN_POINT('',(0.,0.,-39.));
#239=CARTESIAN_POINT('',(-1.5,0.,-39.));
#240=CARTESIAN_POINT('',(-5.32907051820075E-15,0.,-39.));
#241=CARTESIAN_POINT('',(0.,0.,-27.));
#242=CARTESIAN_POINT('',(-1.49895280244614,0.,-27.));
#243=CARTESIAN_POINT('',(0.,0.,-39.));
#244=CARTESIAN_POINT('',(0.,0.,-27.));
#245=CARTESIAN_POINT('',(0.,0.,0.));
#246=CARTESIAN_POINT('',(-1.2,0.,0.));
#247=CARTESIAN_POINT('',(0.,0.,-0.299999999999998));
#248=CARTESIAN_POINT('',(-1.5,0.,-0.299999999999998));
#249=CARTESIAN_POINT('',(0.,0.,-0.299999999999998));
#250=CARTESIAN_POINT('',(1.2,0.,9.66058828318965E-17));
#251=CARTESIAN_POINT('',(0.,0.,-27.));
#252=CARTESIAN_POINT('',(-1.5,0.,-27.));
#253=CARTESIAN_POINT('',(0.,0.,-27.));
#254=CARTESIAN_POINT('',(-1.49895280244614,0.,-27.));
#255=CARTESIAN_POINT('',(1.49895280244614,0.,-27.));
#256=CARTESIAN_POINT('',(0.,0.,-28.));
#257=CARTESIAN_POINT('',(0.,0.,-27.));
#258=MECHANICAL_DESIGN_GEOMETRIC_PRESENTATION_REPRESENTATION('',(#131,#132,
#133,#134,#135,#136,#137,#138,#139,#140),#259);
#259=(
GEOMETRIC_REPRESENTATION_CONTEXT(3)
GLOBAL_UNCERTAINTY_ASSIGNED_CONTEXT((#260))
GLOBAL_UNIT_ASSIGNED_CONTEXT((#266,#262,#261))
REPRESENTATION_CONTEXT('C5141-030D4S','TOP_LEVEL_ASSEMBLY_PART')
);
#260=UNCERTAINTY_MEASURE_WITH_UNIT(LENGTH_MEASURE(2.E-5),#266,
'DISTANCE_ACCURACY_VALUE','Maximum Tolerance applied to model');
#261=(
NAMED_UNIT(*)
SI_UNIT($,.STERADIAN.)
SOLID_ANGLE_UNIT()
);
#262=(
CONVERSION_BASED_UNIT('DEGREE',#264)
NAMED_UNIT(#263)
PLANE_ANGLE_UNIT()
);
#263=DIMENSIONAL_EXPONENTS(0.,0.,0.,0.,0.,0.,0.);
#264=PLANE_ANGLE_MEASURE_WITH_UNIT(PLANE_ANGLE_MEASURE(0.0174532925),#265);
#265=(
NAMED_UNIT(*)
PLANE_ANGLE_UNIT()
SI_UNIT($,.RADIAN.)
);
#266=(
LENGTH_UNIT()
NAMED_UNIT(*)
SI_UNIT(.MILLI.,.METRE.)
);
ENDSEC;
END-ISO-10303-21;
