ISO-10303-21;
HEADER;
/* Generated by software containing ST-Developer
 * from STEP Tools, Inc. (www.steptools.com) 
 */
/* OPTION: using custom schema-name function */

FILE_DESCRIPTION(
/* description */ (''),
/* implementation_level */ '2;1');

FILE_NAME(
/* name */ 'C5141-040D2S.0Z4_Basic.stp',
/* time_stamp */ '2024-03-01T12:00:27+06:00',
/* author */ (''),
/* organization */ (''),
/* preprocessor_version */ 'ST-DEVELOPER v16.7',
/* originating_system */ 'SIEMENS PLM Software NX 12.0',
/* authorisation */ '');

FILE_SCHEMA (('AUTOMOTIVE_DESIGN { 1 0 10303 214 3 1 1 1 }'));
ENDSEC;

DATA;
#10=CONSTRUCTIVE_GEOMETRY_REPRESENTATION_RELATIONSHIP(
'supplemental geometry','',#34,#11);
#11=CONSTRUCTIVE_GEOMETRY_REPRESENTATION('supplemental geometry',(#152,
#153,#154),#244);
#12=GEOMETRICALLY_BOUNDED_WIREFRAME_SHAPE_REPRESENTATION(
'inpu4974ED19np2x-None',(#35),#244);
#13=PROPERTY_DEFINITION_REPRESENTATION(#17,#15);
#14=PROPERTY_DEFINITION_REPRESENTATION(#18,#16);
#15=REPRESENTATION('',(#19),#244);
#16=REPRESENTATION('',(#20),#244);
#17=PROPERTY_DEFINITION('pmi validation property','',#25);
#18=PROPERTY_DEFINITION('pmi validation property','',#25);
#19=VALUE_REPRESENTATION_ITEM('number of annotations',COUNT_MEASURE(0.));
#20=VALUE_REPRESENTATION_ITEM('number of views',COUNT_MEASURE(0.));
#21=SHAPE_REPRESENTATION_RELATIONSHIP('None',
'relationship between inpu4974ED19np2x-None and inpu4974ED19np2x-None',
#34,#23);
#22=SHAPE_REPRESENTATION_RELATIONSHIP('None',
'relationship between inpu4974ED19np2x-None and inpu4974ED19np2x-None',
#34,#12);
#23=ADVANCED_BREP_SHAPE_REPRESENTATION('inpu4974ED19np2x-None',(#46,#47),
#244);
#24=SHAPE_DEFINITION_REPRESENTATION(#25,#34);
#25=PRODUCT_DEFINITION_SHAPE('','',#26);
#26=PRODUCT_DEFINITION(' ','',#28,#27);
#27=PRODUCT_DEFINITION_CONTEXT('part definition',#33,'design');
#28=PRODUCT_DEFINITION_FORMATION_WITH_SPECIFIED_SOURCE(' ',' ',#30,
 .NOT_KNOWN.);
#29=PRODUCT_RELATED_PRODUCT_CATEGORY('part','',(#30));
#30=PRODUCT('inpu4974ED19np2x','inpu4974ED19np2x',' ',(#31));
#31=PRODUCT_CONTEXT(' ',#33,'mechanical');
#32=APPLICATION_PROTOCOL_DEFINITION('international standard',
'automotive_design',2010,#33);
#33=APPLICATION_CONTEXT(
'core data for automotive mechanical design processes');
#34=SHAPE_REPRESENTATION('inpu4974ED19np2x-None',(#151),#244);
#35=GEOMETRIC_CURVE_SET('None',(#206,#129));
#36=SURFACE_STYLE_USAGE(.BOTH.,#38);
#37=SURFACE_STYLE_USAGE(.BOTH.,#39);
#38=SURFACE_SIDE_STYLE('',(#40));
#39=SURFACE_SIDE_STYLE('',(#41));
#40=SURFACE_STYLE_FILL_AREA(#42);
#41=SURFACE_STYLE_FILL_AREA(#43);
#42=FILL_AREA_STYLE('',(#44));
#43=FILL_AREA_STYLE('',(#45));
#44=FILL_AREA_STYLE_COLOUR('',#149);
#45=FILL_AREA_STYLE_COLOUR('',#150);
#46=MANIFOLD_SOLID_BREP('NOCUT',#48);
#47=MANIFOLD_SOLID_BREP('CUT',#49);
#48=CLOSED_SHELL('',(#60,#61,#62,#63,#64));
#49=CLOSED_SHELL('',(#65,#66,#67));
#50=CYLINDRICAL_SURFACE('',#162,2.);
#51=PLANE('',#158);
#52=PLANE('',#161);
#53=PLANE('',#163);
#54=PLANE('',#165);
#55=PLANE('',#168);
#56=FACE_OUTER_BOUND('',#80,.T.);
#57=FACE_OUTER_BOUND('',#85,.T.);
#58=FACE_OUTER_BOUND('',#86,.T.);
#59=FACE_OUTER_BOUND('',#89,.T.);
#60=ADVANCED_FACE('',(#70,#71),#68,.T.);
#61=ADVANCED_FACE('',(#56),#51,.T.);
#62=ADVANCED_FACE('',(#72,#73),#52,.T.);
#63=ADVANCED_FACE('',(#74,#75),#50,.T.);
#64=ADVANCED_FACE('',(#57),#53,.T.);
#65=ADVANCED_FACE('',(#58),#54,.T.);
#66=ADVANCED_FACE('',(#76,#77),#69,.T.);
#67=ADVANCED_FACE('',(#59),#55,.F.);
#68=CONICAL_SURFACE('',#157,2.,45.);
#69=CONICAL_SURFACE('',#167,2.,0.00500000000000524);
#70=FACE_BOUND('',#78,.T.);
#71=FACE_BOUND('',#79,.T.);
#72=FACE_BOUND('',#81,.T.);
#73=FACE_BOUND('',#82,.T.);
#74=FACE_BOUND('',#83,.T.);
#75=FACE_BOUND('',#84,.T.);
#76=FACE_BOUND('',#87,.T.);
#77=FACE_BOUND('',#88,.T.);
#78=EDGE_LOOP('',(#90));
#79=EDGE_LOOP('',(#91));
#80=EDGE_LOOP('',(#92));
#81=EDGE_LOOP('',(#93));
#82=EDGE_LOOP('',(#94));
#83=EDGE_LOOP('',(#95));
#84=EDGE_LOOP('',(#96));
#85=EDGE_LOOP('',(#97));
#86=EDGE_LOOP('',(#98));
#87=EDGE_LOOP('',(#99));
#88=EDGE_LOOP('',(#100));
#89=EDGE_LOOP('',(#101));
#90=ORIENTED_EDGE('',*,*,#108,.T.);
#91=ORIENTED_EDGE('',*,*,#109,.F.);
#92=ORIENTED_EDGE('',*,*,#108,.F.);
#93=ORIENTED_EDGE('',*,*,#110,.T.);
#94=ORIENTED_EDGE('',*,*,#111,.F.);
#95=ORIENTED_EDGE('',*,*,#109,.T.);
#96=ORIENTED_EDGE('',*,*,#110,.F.);
#97=ORIENTED_EDGE('',*,*,#111,.T.);
#98=ORIENTED_EDGE('',*,*,#112,.T.);
#99=ORIENTED_EDGE('',*,*,#113,.F.);
#100=ORIENTED_EDGE('',*,*,#112,.F.);
#101=ORIENTED_EDGE('',*,*,#113,.T.);
#102=VERTEX_POINT('',#224);
#103=VERTEX_POINT('',#226);
#104=VERTEX_POINT('',#230);
#105=VERTEX_POINT('',#232);
#106=VERTEX_POINT('',#237);
#107=VERTEX_POINT('',#240);
#108=EDGE_CURVE('',#102,#102,#114,.T.);
#109=EDGE_CURVE('',#103,#103,#115,.T.);
#110=EDGE_CURVE('',#104,#104,#116,.T.);
#111=EDGE_CURVE('',#105,#105,#117,.T.);
#112=EDGE_CURVE('',#106,#106,#118,.T.);
#113=EDGE_CURVE('',#107,#107,#119,.T.);
#114=CIRCLE('',#155,1.5);
#115=CIRCLE('',#156,2.);
#116=CIRCLE('',#159,2.);
#117=CIRCLE('',#160,1.99930186829743);
#118=CIRCLE('',#164,2.);
#119=CIRCLE('',#166,1.99930186829743);
#120=CURVE_STYLE('',#125,POSITIVE_LENGTH_MEASURE(0.18),#124);
#121=CURVE_STYLE('',#126,POSITIVE_LENGTH_MEASURE(0.18),#148);
#122=CURVE_STYLE('',#127,POSITIVE_LENGTH_MEASURE(0.18),#148);
#123=CURVE_STYLE('',#128,POSITIVE_LENGTH_MEASURE(0.18),#148);
#124=DRAUGHTING_PRE_DEFINED_COLOUR('blue');
#125=DRAUGHTING_PRE_DEFINED_CURVE_FONT('continuous');
#126=DRAUGHTING_PRE_DEFINED_CURVE_FONT('continuous');
#127=DRAUGHTING_PRE_DEFINED_CURVE_FONT('continuous');
#128=DRAUGHTING_PRE_DEFINED_CURVE_FONT('continuous');
#129=B_SPLINE_CURVE_WITH_KNOTS('CUTTING PART LINE',3,(#207,#208,#209,#210,
#211,#212,#213,#214,#215,#216,#217,#218,#219),.UNSPECIFIED.,.T.,.F.,(4,
3,3,3,4),(0.,0.400013962514363,0.500017453139203,0.900031417178619,1.),
 .UNSPECIFIED.);
#130=PRESENTATION_LAYER_ASSIGNMENT('1','Layer 1',(#206,#129,#152,#153,#154,
#46,#47));
#131=STYLED_ITEM('',(#138),#206);
#132=STYLED_ITEM('',(#139),#129);
#133=STYLED_ITEM('',(#140),#152);
#134=STYLED_ITEM('',(#141),#153);
#135=STYLED_ITEM('',(#142),#154);
#136=STYLED_ITEM('',(#143),#46);
#137=STYLED_ITEM('',(#144),#47);
#138=PRESENTATION_STYLE_ASSIGNMENT((#145));
#139=PRESENTATION_STYLE_ASSIGNMENT((#120));
#140=PRESENTATION_STYLE_ASSIGNMENT((#121));
#141=PRESENTATION_STYLE_ASSIGNMENT((#122));
#142=PRESENTATION_STYLE_ASSIGNMENT((#123));
#143=PRESENTATION_STYLE_ASSIGNMENT((#36));
#144=PRESENTATION_STYLE_ASSIGNMENT((#37));
#145=POINT_STYLE('',#146,POSITIVE_LENGTH_MEASURE(3.),#147);
#146=PRE_DEFINED_POINT_MARKER_SYMBOL('plus');
#147=COLOUR_RGB('Medium Royal',0.2,0.4,0.8);
#148=COLOUR_RGB('Pale Maroon',0.811749446860456,0.603921568627451,0.611749446860456);
#149=COLOUR_RGB('Medium Gray',0.490196078431373,0.490196078431373,0.490196078431373);
#150=COLOUR_RGB('Light Gray',0.8,0.8,0.8);
#151=AXIS2_PLACEMENT_3D('',#205,#169,#170);
#152=AXIS2_PLACEMENT_3D('MCS',#220,#171,#172);
#153=AXIS2_PLACEMENT_3D('PCS',#221,#173,#174);
#154=AXIS2_PLACEMENT_3D('CIP',#222,#175,#176);
#155=AXIS2_PLACEMENT_3D('',#223,#177,#178);
#156=AXIS2_PLACEMENT_3D('',#225,#179,#180);
#157=AXIS2_PLACEMENT_3D('',#227,#181,#182);
#158=AXIS2_PLACEMENT_3D('',#228,#183,#184);
#159=AXIS2_PLACEMENT_3D('',#229,#185,#186);
#160=AXIS2_PLACEMENT_3D('',#231,#187,#188);
#161=AXIS2_PLACEMENT_3D('',#233,#189,#190);
#162=AXIS2_PLACEMENT_3D('',#234,#191,#192);
#163=AXIS2_PLACEMENT_3D('',#235,#193,#194);
#164=AXIS2_PLACEMENT_3D('',#236,#195,#196);
#165=AXIS2_PLACEMENT_3D('',#238,#197,#198);
#166=AXIS2_PLACEMENT_3D('',#239,#199,#200);
#167=AXIS2_PLACEMENT_3D('',#241,#201,#202);
#168=AXIS2_PLACEMENT_3D('',#242,#203,#204);
#169=DIRECTION('',(0.,0.,1.));
#170=DIRECTION('',(1.,0.,0.));
#171=DIRECTION('',(0.,0.,1.));
#172=DIRECTION('',(1.,0.,0.));
#173=DIRECTION('',(0.,0.,1.));
#174=DIRECTION('',(1.,0.,0.));
#175=DIRECTION('',(0.,0.,1.));
#176=DIRECTION('',(1.,0.,0.));
#177=DIRECTION('',(0.,0.,-1.));
#178=DIRECTION('',(-1.,0.,0.));
#179=DIRECTION('',(0.,0.,-1.));
#180=DIRECTION('',(-1.,0.,0.));
#181=DIRECTION('',(0.,0.,-1.));
#182=DIRECTION('',(-1.,0.,5.54003505301974E-17));
#183=DIRECTION('',(0.,0.,1.));
#184=DIRECTION('',(1.,0.,0.));
#185=DIRECTION('',(0.,0.,-1.));
#186=DIRECTION('',(-1.,0.,0.));
#187=DIRECTION('',(0.,0.,-1.));
#188=DIRECTION('',(-1.,0.,0.));
#189=DIRECTION('',(0.,0.,-1.));
#190=DIRECTION('',(-1.,0.,0.));
#191=DIRECTION('',(0.,0.,-1.));
#192=DIRECTION('',(-1.,0.,0.));
#193=DIRECTION('',(0.,0.,-1.));
#194=DIRECTION('',(-1.,0.,0.));
#195=DIRECTION('',(0.,0.,-1.));
#196=DIRECTION('',(-1.,0.,0.));
#197=DIRECTION('',(0.,0.,-1.));
#198=DIRECTION('',(-1.,0.,0.));
#199=DIRECTION('',(0.,0.,1.));
#200=DIRECTION('',(-1.,0.,0.));
#201=DIRECTION('',(0.,0.,-1.));
#202=DIRECTION('',(-1.,0.,-1.99463576716353E-14));
#203=DIRECTION('',(0.,0.,-1.));
#204=DIRECTION('',(-1.,0.,0.));
#205=CARTESIAN_POINT('',(0.,0.,0.));
#206=CARTESIAN_POINT('CRP',(-2.,0.,-50.));
#207=CARTESIAN_POINT('',(0.,0.,-42.));
#208=CARTESIAN_POINT('',(0.,0.,-44.6666666666667));
#209=CARTESIAN_POINT('',(0.,0.,-47.3333333333333));
#210=CARTESIAN_POINT('',(0.,0.,-50.));
#211=CARTESIAN_POINT('',(-0.666666666666667,0.,-50.));
#212=CARTESIAN_POINT('',(-1.33333333333333,0.,-50.));
#213=CARTESIAN_POINT('',(-2.,0.,-50.));
#214=CARTESIAN_POINT('',(-1.99976728943248,0.,-47.3333333333333));
#215=CARTESIAN_POINT('',(-1.99953457886495,0.,-44.6666666666667));
#216=CARTESIAN_POINT('',(-1.99930186829743,0.,-42.));
#217=CARTESIAN_POINT('',(-1.33286791219829,0.,-42.));
#218=CARTESIAN_POINT('',(-0.666433956099143,0.,-42.));
#219=CARTESIAN_POINT('',(0.,0.,-42.));
#220=CARTESIAN_POINT('',(0.,0.,-25.));
#221=CARTESIAN_POINT('',(0.,0.,0.));
#222=CARTESIAN_POINT('',(0.,0.,-50.));
#223=CARTESIAN_POINT('',(0.,0.,0.));
#224=CARTESIAN_POINT('',(-1.5,0.,0.));
#225=CARTESIAN_POINT('',(0.,0.,-0.5));
#226=CARTESIAN_POINT('',(-2.,0.,-0.5));
#227=CARTESIAN_POINT('',(0.,0.,-0.5));
#228=CARTESIAN_POINT('',(1.5,0.,4.10947316006387E-17));
#229=CARTESIAN_POINT('',(0.,0.,-42.));
#230=CARTESIAN_POINT('',(-2.,0.,-42.));
#231=CARTESIAN_POINT('',(0.,0.,-42.));
#232=CARTESIAN_POINT('',(-1.99930186829743,0.,-42.));
#233=CARTESIAN_POINT('',(1.99930186829743,0.,-42.));
#234=CARTESIAN_POINT('',(0.,0.,-25.));
#235=CARTESIAN_POINT('',(0.,0.,-42.));
#236=CARTESIAN_POINT('',(0.,0.,-50.));
#237=CARTESIAN_POINT('',(-2.,0.,-50.));
#238=CARTESIAN_POINT('',(-3.99680288865056E-15,0.,-50.));
#239=CARTESIAN_POINT('',(0.,0.,-42.));
#240=CARTESIAN_POINT('',(-1.99930186829743,0.,-42.));
#241=CARTESIAN_POINT('',(0.,0.,-50.));
#242=CARTESIAN_POINT('',(0.,0.,-42.));
#243=MECHANICAL_DESIGN_GEOMETRIC_PRESENTATION_REPRESENTATION('',(#131,#132,
#133,#134,#135,#136,#137),#244);
#244=(
GEOMETRIC_REPRESENTATION_CONTEXT(3)
GLOBAL_UNCERTAINTY_ASSIGNED_CONTEXT((#245))
GLOBAL_UNIT_ASSIGNED_CONTEXT((#251,#247,#246))
REPRESENTATION_CONTEXT('C5141-040D2S','TOP_LEVEL_ASSEMBLY_PART')
);
#245=UNCERTAINTY_MEASURE_WITH_UNIT(LENGTH_MEASURE(2.E-5),#251,
'DISTANCE_ACCURACY_VALUE','Maximum Tolerance applied to model');
#246=(
NAMED_UNIT(*)
SI_UNIT($,.STERADIAN.)
SOLID_ANGLE_UNIT()
);
#247=(
CONVERSION_BASED_UNIT('DEGREE',#249)
NAMED_UNIT(#248)
PLANE_ANGLE_UNIT()
);
#248=DIMENSIONAL_EXPONENTS(0.,0.,0.,0.,0.,0.,0.);
#249=PLANE_ANGLE_MEASURE_WITH_UNIT(PLANE_ANGLE_MEASURE(0.0174532925),#250);
#250=(
NAMED_UNIT(*)
PLANE_ANGLE_UNIT()
SI_UNIT($,.RADIAN.)
);
#251=(
LENGTH_UNIT()
NAMED_UNIT(*)
SI_UNIT(.MILLI.,.METRE.)
);
ENDSEC;
END-ISO-10303-21;
