ISO-10303-21;
HEADER;
/* Generated by software containing ST-Developer
 * from STEP Tools, Inc. (www.steptools.com) 
 */
/* OPTION: using custom schema-name function */

FILE_DESCRIPTION(
/* description */ (''),
/* implementation_level */ '2;1');

FILE_NAME(
/* name */ 'C5141-1.000D2R015.0Z4_Basic.stp',
/* time_stamp */ '2024-06-17T09:45:59+05:00',
/* author */ (''),
/* organization */ (''),
/* preprocessor_version */ 'ST-DEVELOPER v16.7',
/* originating_system */ 'SIEMENS PLM Software NX 12.0',
/* authorisation */ '');

FILE_SCHEMA (('AUTOMOTIVE_DESIGN { 1 0 10303 214 3 1 1 1 }'));
ENDSEC;

DATA;
#10=CONSTRUCTIVE_GEOMETRY_REPRESENTATION_RELATIONSHIP(
'supplemental geometry','',#34,#11);
#11=CONSTRUCTIVE_GEOMETRY_REPRESENTATION('supplemental geometry',(#164,
#165,#166),#268);
#12=GEOMETRICALLY_BOUNDED_WIREFRAME_SHAPE_REPRESENTATION(
'inpu4F28F8327how-None',(#35),#268);
#13=PROPERTY_DEFINITION_REPRESENTATION(#17,#15);
#14=PROPERTY_DEFINITION_REPRESENTATION(#18,#16);
#15=REPRESENTATION('',(#19),#268);
#16=REPRESENTATION('',(#20),#268);
#17=PROPERTY_DEFINITION('pmi validation property','',#25);
#18=PROPERTY_DEFINITION('pmi validation property','',#25);
#19=VALUE_REPRESENTATION_ITEM('number of annotations',COUNT_MEASURE(0.));
#20=VALUE_REPRESENTATION_ITEM('number of views',COUNT_MEASURE(0.));
#21=SHAPE_REPRESENTATION_RELATIONSHIP('None',
'relationship between inpu4F28F8327how-None and inpu4F28F8327how-None',
#34,#23);
#22=SHAPE_REPRESENTATION_RELATIONSHIP('None',
'relationship between inpu4F28F8327how-None and inpu4F28F8327how-None',
#34,#12);
#23=ADVANCED_BREP_SHAPE_REPRESENTATION('inpu4F28F8327how-None',(#47,#48),
#268);
#24=SHAPE_DEFINITION_REPRESENTATION(#25,#34);
#25=PRODUCT_DEFINITION_SHAPE('','',#26);
#26=PRODUCT_DEFINITION(' ','',#28,#27);
#27=PRODUCT_DEFINITION_CONTEXT('part definition',#33,'design');
#28=PRODUCT_DEFINITION_FORMATION_WITH_SPECIFIED_SOURCE(' ',' ',#30,
 .NOT_KNOWN.);
#29=PRODUCT_RELATED_PRODUCT_CATEGORY('part','',(#30));
#30=PRODUCT('inpu4F28F8327how','inpu4F28F8327how',' ',(#31));
#31=PRODUCT_CONTEXT(' ',#33,'mechanical');
#32=APPLICATION_PROTOCOL_DEFINITION('international standard',
'automotive_design',2010,#33);
#33=APPLICATION_CONTEXT(
'core data for automotive mechanical design processes');
#34=SHAPE_REPRESENTATION('inpu4F28F8327how-None',(#163),#268);
#35=GEOMETRIC_CURVE_SET('None',(#224,#140));
#36=TOROIDAL_SURFACE('',#179,12.319,0.381);
#37=SURFACE_STYLE_USAGE(.BOTH.,#39);
#38=SURFACE_STYLE_USAGE(.BOTH.,#40);
#39=SURFACE_SIDE_STYLE('',(#41));
#40=SURFACE_SIDE_STYLE('',(#42));
#41=SURFACE_STYLE_FILL_AREA(#43);
#42=SURFACE_STYLE_FILL_AREA(#44);
#43=FILL_AREA_STYLE('',(#45));
#44=FILL_AREA_STYLE('',(#46));
#45=FILL_AREA_STYLE_COLOUR('',#161);
#46=FILL_AREA_STYLE_COLOUR('',#162);
#47=MANIFOLD_SOLID_BREP('NOCUT',#49);
#48=MANIFOLD_SOLID_BREP('CUT',#50);
#49=CLOSED_SHELL('',(#61,#62,#63,#64,#65));
#50=CLOSED_SHELL('',(#66,#67,#68,#69));
#51=CYLINDRICAL_SURFACE('',#174,12.7);
#52=PLANE('',#170);
#53=PLANE('',#173);
#54=PLANE('',#175);
#55=PLANE('',#177);
#56=PLANE('',#182);
#57=FACE_OUTER_BOUND('',#84,.T.);
#58=FACE_OUTER_BOUND('',#89,.T.);
#59=FACE_OUTER_BOUND('',#90,.T.);
#60=FACE_OUTER_BOUND('',#95,.T.);
#61=ADVANCED_FACE('',(#72,#73),#70,.T.);
#62=ADVANCED_FACE('',(#57),#52,.T.);
#63=ADVANCED_FACE('',(#74,#75),#53,.T.);
#64=ADVANCED_FACE('',(#76,#77),#51,.T.);
#65=ADVANCED_FACE('',(#58),#54,.T.);
#66=ADVANCED_FACE('',(#59),#55,.T.);
#67=ADVANCED_FACE('',(#78,#79),#36,.T.);
#68=ADVANCED_FACE('',(#80,#81),#71,.T.);
#69=ADVANCED_FACE('',(#60),#56,.F.);
#70=CONICAL_SURFACE('',#169,12.7,44.9999999999999);
#71=CONICAL_SURFACE('',#181,12.6999999985493,0.00500000000000287);
#72=FACE_BOUND('',#82,.T.);
#73=FACE_BOUND('',#83,.T.);
#74=FACE_BOUND('',#85,.T.);
#75=FACE_BOUND('',#86,.T.);
#76=FACE_BOUND('',#87,.T.);
#77=FACE_BOUND('',#88,.T.);
#78=FACE_BOUND('',#91,.T.);
#79=FACE_BOUND('',#92,.T.);
#80=FACE_BOUND('',#93,.T.);
#81=FACE_BOUND('',#94,.T.);
#82=EDGE_LOOP('',(#96));
#83=EDGE_LOOP('',(#97));
#84=EDGE_LOOP('',(#98));
#85=EDGE_LOOP('',(#99));
#86=EDGE_LOOP('',(#100));
#87=EDGE_LOOP('',(#101));
#88=EDGE_LOOP('',(#102));
#89=EDGE_LOOP('',(#103));
#90=EDGE_LOOP('',(#104));
#91=EDGE_LOOP('',(#105));
#92=EDGE_LOOP('',(#106));
#93=EDGE_LOOP('',(#107));
#94=EDGE_LOOP('',(#108));
#95=EDGE_LOOP('',(#109));
#96=ORIENTED_EDGE('',*,*,#117,.T.);
#97=ORIENTED_EDGE('',*,*,#118,.F.);
#98=ORIENTED_EDGE('',*,*,#117,.F.);
#99=ORIENTED_EDGE('',*,*,#119,.T.);
#100=ORIENTED_EDGE('',*,*,#120,.F.);
#101=ORIENTED_EDGE('',*,*,#118,.T.);
#102=ORIENTED_EDGE('',*,*,#119,.F.);
#103=ORIENTED_EDGE('',*,*,#120,.T.);
#104=ORIENTED_EDGE('',*,*,#121,.T.);
#105=ORIENTED_EDGE('',*,*,#122,.T.);
#106=ORIENTED_EDGE('',*,*,#121,.F.);
#107=ORIENTED_EDGE('',*,*,#123,.T.);
#108=ORIENTED_EDGE('',*,*,#122,.F.);
#109=ORIENTED_EDGE('',*,*,#123,.F.);
#110=VERTEX_POINT('',#245);
#111=VERTEX_POINT('',#247);
#112=VERTEX_POINT('',#251);
#113=VERTEX_POINT('',#253);
#114=VERTEX_POINT('',#258);
#115=VERTEX_POINT('',#261);
#116=VERTEX_POINT('',#264);
#117=EDGE_CURVE('',#110,#110,#124,.T.);
#118=EDGE_CURVE('',#111,#111,#125,.T.);
#119=EDGE_CURVE('',#112,#112,#126,.T.);
#120=EDGE_CURVE('',#113,#113,#127,.T.);
#121=EDGE_CURVE('',#114,#114,#128,.T.);
#122=EDGE_CURVE('',#115,#115,#129,.T.);
#123=EDGE_CURVE('',#116,#116,#130,.T.);
#124=CIRCLE('',#167,11.9126);
#125=CIRCLE('',#168,12.7);
#126=CIRCLE('',#171,12.7);
#127=CIRCLE('',#172,12.6967083977396);
#128=CIRCLE('',#176,12.319);
#129=CIRCLE('',#178,12.6999999985493);
#130=CIRCLE('',#180,12.6967083977396);
#131=CURVE_STYLE('',#136,POSITIVE_LENGTH_MEASURE(0.18),#135);
#132=CURVE_STYLE('',#137,POSITIVE_LENGTH_MEASURE(0.18),#160);
#133=CURVE_STYLE('',#138,POSITIVE_LENGTH_MEASURE(0.18),#160);
#134=CURVE_STYLE('',#139,POSITIVE_LENGTH_MEASURE(0.18),#160);
#135=DRAUGHTING_PRE_DEFINED_COLOUR('blue');
#136=DRAUGHTING_PRE_DEFINED_CURVE_FONT('continuous');
#137=DRAUGHTING_PRE_DEFINED_CURVE_FONT('continuous');
#138=DRAUGHTING_PRE_DEFINED_CURVE_FONT('continuous');
#139=DRAUGHTING_PRE_DEFINED_CURVE_FONT('continuous');
#140=TRIMMED_CURVE('CUTTING PART LINE',#141,(PARAMETER_VALUE(0.)),(
PARAMETER_VALUE(1.)),.T.,.PARAMETER.);
#141=(
BOUNDED_CURVE()
B_SPLINE_CURVE(3,(#225,#226,#227,#228,#229,#230,#231,#232,#233,#234,#235,
#236,#237,#238,#239,#240),.UNSPECIFIED.,.T.,.F.)
B_SPLINE_CURVE_WITH_KNOTS((4,3,3,3,3,4),(0.,0.375616728871805,0.497066137872703,
0.502966639439774,0.874826874651358,1.),.UNSPECIFIED.)
CURVE()
GEOMETRIC_REPRESENTATION_ITEM()
RATIONAL_B_SPLINE_CURVE((1.,1.,1.,1.,1.,1.,1.,0.804717284773132,0.804717284773132,
1.,1.,1.,1.,1.,1.,1.))
REPRESENTATION_ITEM('CUTTING PART LINE')
);
#142=PRESENTATION_LAYER_ASSIGNMENT('1','Layer 1',(#224,#140,#164,#165,#166,
#47,#48));
#143=STYLED_ITEM('',(#150),#224);
#144=STYLED_ITEM('',(#151),#140);
#145=STYLED_ITEM('',(#152),#164);
#146=STYLED_ITEM('',(#153),#165);
#147=STYLED_ITEM('',(#154),#166);
#148=STYLED_ITEM('',(#155),#47);
#149=STYLED_ITEM('',(#156),#48);
#150=PRESENTATION_STYLE_ASSIGNMENT((#157));
#151=PRESENTATION_STYLE_ASSIGNMENT((#131));
#152=PRESENTATION_STYLE_ASSIGNMENT((#132));
#153=PRESENTATION_STYLE_ASSIGNMENT((#133));
#154=PRESENTATION_STYLE_ASSIGNMENT((#134));
#155=PRESENTATION_STYLE_ASSIGNMENT((#37));
#156=PRESENTATION_STYLE_ASSIGNMENT((#38));
#157=POINT_STYLE('',#158,POSITIVE_LENGTH_MEASURE(3.),#159);
#158=PRE_DEFINED_POINT_MARKER_SYMBOL('plus');
#159=COLOUR_RGB('Medium Royal',0.2,0.4,0.8);
#160=COLOUR_RGB('Pale Maroon',0.811749446860456,0.603921568627451,0.611749446860456);
#161=COLOUR_RGB('Medium Gray',0.490196078431373,0.490196078431373,0.490196078431373);
#162=COLOUR_RGB('Light Gray',0.8,0.8,0.8);
#163=AXIS2_PLACEMENT_3D('',#223,#183,#184);
#164=AXIS2_PLACEMENT_3D('MCS',#241,#185,#186);
#165=AXIS2_PLACEMENT_3D('CIP',#242,#187,#188);
#166=AXIS2_PLACEMENT_3D('PCS',#243,#189,#190);
#167=AXIS2_PLACEMENT_3D('',#244,#191,#192);
#168=AXIS2_PLACEMENT_3D('',#246,#193,#194);
#169=AXIS2_PLACEMENT_3D('',#248,#195,#196);
#170=AXIS2_PLACEMENT_3D('',#249,#197,#198);
#171=AXIS2_PLACEMENT_3D('',#250,#199,#200);
#172=AXIS2_PLACEMENT_3D('',#252,#201,#202);
#173=AXIS2_PLACEMENT_3D('',#254,#203,#204);
#174=AXIS2_PLACEMENT_3D('',#255,#205,#206);
#175=AXIS2_PLACEMENT_3D('',#256,#207,#208);
#176=AXIS2_PLACEMENT_3D('',#257,#209,#210);
#177=AXIS2_PLACEMENT_3D('',#259,#211,#212);
#178=AXIS2_PLACEMENT_3D('',#260,#213,#214);
#179=AXIS2_PLACEMENT_3D('',#262,#215,#216);
#180=AXIS2_PLACEMENT_3D('',#263,#217,#218);
#181=AXIS2_PLACEMENT_3D('',#265,#219,#220);
#182=AXIS2_PLACEMENT_3D('',#266,#221,#222);
#183=DIRECTION('',(0.,0.,1.));
#184=DIRECTION('',(1.,0.,0.));
#185=DIRECTION('',(0.,0.,1.));
#186=DIRECTION('',(1.,0.,0.));
#187=DIRECTION('',(0.,0.,1.));
#188=DIRECTION('',(1.,0.,0.));
#189=DIRECTION('',(0.,0.,1.));
#190=DIRECTION('',(1.,0.,0.));
#191=DIRECTION('',(0.,0.,-1.));
#192=DIRECTION('',(-1.,0.,0.));
#193=DIRECTION('',(0.,0.,-1.));
#194=DIRECTION('',(-1.,0.,0.));
#195=DIRECTION('',(0.,0.,-1.));
#196=DIRECTION('',(-1.,0.,-1.02778126353914E-16));
#197=DIRECTION('',(0.,0.,1.));
#198=DIRECTION('',(1.,0.,0.));
#199=DIRECTION('',(0.,0.,-1.));
#200=DIRECTION('',(-1.,0.,0.));
#201=DIRECTION('',(0.,0.,-1.));
#202=DIRECTION('',(-1.,0.,0.));
#203=DIRECTION('',(0.,0.,-1.));
#204=DIRECTION('',(-1.,0.,0.));
#205=DIRECTION('',(0.,0.,-1.));
#206=DIRECTION('',(-1.,0.,0.));
#207=DIRECTION('',(0.,0.,-1.));
#208=DIRECTION('',(-1.,0.,0.));
#209=DIRECTION('',(0.,0.,-1.));
#210=DIRECTION('',(-1.,0.,0.));
#211=DIRECTION('',(0.,0.,-1.));
#212=DIRECTION('',(-1.,0.,0.));
#213=DIRECTION('',(0.,0.,-1.));
#214=DIRECTION('',(-1.,0.,0.));
#215=DIRECTION('',(0.,0.,-1.));
#216=DIRECTION('',(-1.,0.,0.));
#217=DIRECTION('',(0.,0.,-1.));
#218=DIRECTION('',(-1.,0.,0.));
#219=DIRECTION('',(0.,0.,-1.));
#220=DIRECTION('',(-1.,0.,-1.0852818192018E-15));
#221=DIRECTION('',(0.,0.,-1.));
#222=DIRECTION('',(-1.,0.,0.));
#223=CARTESIAN_POINT('',(0.,0.,0.));
#224=CARTESIAN_POINT('CRP',(-12.7,0.,-101.6));
#225=CARTESIAN_POINT('',(0.,0.,-63.5));
#226=CARTESIAN_POINT('',(0.,0.,-76.2));
#227=CARTESIAN_POINT('',(0.,0.,-88.9));
#228=CARTESIAN_POINT('',(0.,0.,-101.6));
#229=CARTESIAN_POINT('',(-4.10633333333333,0.,-101.6));
#230=CARTESIAN_POINT('',(-8.21266666666667,0.,-101.6));
#231=CARTESIAN_POINT('',(-12.319,0.,-101.6));
#232=CARTESIAN_POINT('',(-12.5422000758538,0.,-101.6));
#233=CARTESIAN_POINT('',(-12.7000194764303,0.,-101.442166826482));
#234=CARTESIAN_POINT('',(-12.6999999985493,0.,-101.218966751478));
#235=CARTESIAN_POINT('',(-12.698902798279,0.,-88.6459778343185));
#236=CARTESIAN_POINT('',(-12.6978055980095,0.,-76.0729889171593));
#237=CARTESIAN_POINT('',(-12.6967083977396,0.,-63.5));
#238=CARTESIAN_POINT('',(-8.46447226515973,0.,-63.5));
#239=CARTESIAN_POINT('',(-4.23223613257986,0.,-63.5));
#240=CARTESIAN_POINT('',(0.,0.,-63.5));
#241=CARTESIAN_POINT('',(0.,0.,-57.94));
#242=CARTESIAN_POINT('',(0.,0.,-101.6));
#243=CARTESIAN_POINT('',(0.,0.,0.));
#244=CARTESIAN_POINT('',(0.,0.,0.));
#245=CARTESIAN_POINT('',(-11.9126,0.,0.));
#246=CARTESIAN_POINT('',(0.,0.,-0.787400000000001));
#247=CARTESIAN_POINT('',(-12.7,0.,-0.787400000000001));
#248=CARTESIAN_POINT('',(0.,0.,-0.787400000000001));
#249=CARTESIAN_POINT('',(11.9126,0.,8.62997903152481E-17));
#250=CARTESIAN_POINT('',(0.,0.,-63.5));
#251=CARTESIAN_POINT('',(-12.7,0.,-63.5));
#252=CARTESIAN_POINT('',(0.,0.,-63.5));
#253=CARTESIAN_POINT('',(-12.6967083977396,0.,-63.5));
#254=CARTESIAN_POINT('',(12.6967083977396,0.,-63.5));
#255=CARTESIAN_POINT('',(0.,0.,-57.94));
#256=CARTESIAN_POINT('',(0.,0.,-63.5));
#257=CARTESIAN_POINT('',(0.,0.,-101.6));
#258=CARTESIAN_POINT('',(-12.319,0.,-101.6));
#259=CARTESIAN_POINT('',(2.22044604925031E-15,0.,-101.6));
#260=CARTESIAN_POINT('',(0.,0.,-101.218966751478));
#261=CARTESIAN_POINT('',(-12.6999999985493,0.,-101.218966751478));
#262=CARTESIAN_POINT('',(0.,0.,-101.219));
#263=CARTESIAN_POINT('',(0.,0.,-63.5));
#264=CARTESIAN_POINT('',(-12.6967083977396,0.,-63.5));
#265=CARTESIAN_POINT('',(0.,0.,-101.218966751478));
#266=CARTESIAN_POINT('',(0.,0.,-63.5));
#267=MECHANICAL_DESIGN_GEOMETRIC_PRESENTATION_REPRESENTATION('',(#143,#144,
#145,#146,#147,#148,#149),#268);
#268=(
GEOMETRIC_REPRESENTATION_CONTEXT(3)
GLOBAL_UNCERTAINTY_ASSIGNED_CONTEXT((#269))
GLOBAL_UNIT_ASSIGNED_CONTEXT((#275,#271,#270))
REPRESENTATION_CONTEXT('C5141-1.000D2R015','TOP_LEVEL_ASSEMBLY_PART')
);
#269=UNCERTAINTY_MEASURE_WITH_UNIT(LENGTH_MEASURE(2.E-5),#275,
'DISTANCE_ACCURACY_VALUE','Maximum Tolerance applied to model');
#270=(
NAMED_UNIT(*)
SI_UNIT($,.STERADIAN.)
SOLID_ANGLE_UNIT()
);
#271=(
CONVERSION_BASED_UNIT('DEGREE',#273)
NAMED_UNIT(#272)
PLANE_ANGLE_UNIT()
);
#272=DIMENSIONAL_EXPONENTS(0.,0.,0.,0.,0.,0.,0.);
#273=PLANE_ANGLE_MEASURE_WITH_UNIT(PLANE_ANGLE_MEASURE(0.0174532925),#274);
#274=(
NAMED_UNIT(*)
PLANE_ANGLE_UNIT()
SI_UNIT($,.RADIAN.)
);
#275=(
LENGTH_UNIT()
NAMED_UNIT(*)
SI_UNIT(.MILLI.,.METRE.)
);
ENDSEC;
END-ISO-10303-21;
