ISO-10303-21;
HEADER;
/* Generated by software containing ST-Developer
 * from STEP Tools, Inc. (www.steptools.com) 
 */
/* OPTION: using custom schema-name function */

FILE_DESCRIPTION(
/* description */ (''),
/* implementation_level */ '2;1');

FILE_NAME(
/* name */ 'C5141-120D4S.0Z4_Basic.stp',
/* time_stamp */ '2024-08-14T13:50:40+05:00',
/* author */ (''),
/* organization */ (''),
/* preprocessor_version */ 'ST-DEVELOPER v18.102',
/* originating_system */ 'SIEMENS PLM Software NX2206.8101',
/* authorisation */ '');

FILE_SCHEMA (('AUTOMOTIVE_DESIGN { 1 0 10303 214 3 1 1 1 }'));
ENDSEC;

DATA;
#10=CONSTRUCTIVE_GEOMETRY_REPRESENTATION_RELATIONSHIP(
'supplemental geometry','',#34,#11);
#11=CONSTRUCTIVE_GEOMETRY_REPRESENTATION('supplemental geometry',(#152,
#153,#154),#244);
#12=GEOMETRICALLY_BOUNDED_WIREFRAME_SHAPE_REPRESENTATION(
'inpu20E8B98A78ho-None',(#35),#244);
#13=PROPERTY_DEFINITION_REPRESENTATION(#17,#15);
#14=PROPERTY_DEFINITION_REPRESENTATION(#18,#16);
#15=REPRESENTATION('',(#19),#244);
#16=REPRESENTATION('',(#20),#244);
#17=PROPERTY_DEFINITION('pmi validation property','',#25);
#18=PROPERTY_DEFINITION('pmi validation property','',#25);
#19=VALUE_REPRESENTATION_ITEM('number of annotations',COUNT_MEASURE(0.));
#20=VALUE_REPRESENTATION_ITEM('number of views',COUNT_MEASURE(0.));
#21=SHAPE_REPRESENTATION_RELATIONSHIP('None',
'relationship between inpu20E8B98A78ho-None and inpu20E8B98A78ho-None',
#34,#23);
#22=SHAPE_REPRESENTATION_RELATIONSHIP('None',
'relationship between inpu20E8B98A78ho-None and inpu20E8B98A78ho-None',
#34,#12);
#23=ADVANCED_BREP_SHAPE_REPRESENTATION('inpu20E8B98A78ho-None',(#47,#48),
#244);
#24=SHAPE_DEFINITION_REPRESENTATION(#25,#34);
#25=PRODUCT_DEFINITION_SHAPE('','',#26);
#26=PRODUCT_DEFINITION(' ','',#28,#27);
#27=PRODUCT_DEFINITION_CONTEXT('part definition',#33,'design');
#28=PRODUCT_DEFINITION_FORMATION_WITH_SPECIFIED_SOURCE(' ',' ',#30,
 .NOT_KNOWN.);
#29=PRODUCT_RELATED_PRODUCT_CATEGORY('part','',(#30));
#30=PRODUCT('inpu20E8B98A78ho','inpu20E8B98A78ho',' ',(#31));
#31=PRODUCT_CONTEXT(' ',#33,'mechanical');
#32=APPLICATION_PROTOCOL_DEFINITION('international standard',
'automotive_design',2010,#33);
#33=APPLICATION_CONTEXT(
'core data for automotive mechanical design processes');
#34=SHAPE_REPRESENTATION('inpu20E8B98A78ho-None',(#151),#244);
#35=GEOMETRIC_CURVE_SET('None',(#206,#129));
#36=CYLINDRICAL_SURFACE('',#167,6.);
#37=SURFACE_STYLE_USAGE(.BOTH.,#39);
#38=SURFACE_STYLE_USAGE(.BOTH.,#40);
#39=SURFACE_SIDE_STYLE('',(#41));
#40=SURFACE_SIDE_STYLE('',(#42));
#41=SURFACE_STYLE_FILL_AREA(#43);
#42=SURFACE_STYLE_FILL_AREA(#44);
#43=FILL_AREA_STYLE('',(#45));
#44=FILL_AREA_STYLE('',(#46));
#45=FILL_AREA_STYLE_COLOUR('',#149);
#46=FILL_AREA_STYLE_COLOUR('',#150);
#47=MANIFOLD_SOLID_BREP('CUT',#49);
#48=MANIFOLD_SOLID_BREP('NOCUT',#50);
#49=CLOSED_SHELL('',(#61,#62,#63));
#50=CLOSED_SHELL('',(#64,#65,#66,#67,#68));
#51=CONICAL_SURFACE('',#158,6.00000000000001,0.00500000000000288);
#52=CONICAL_SURFACE('',#162,6.,45.);
#53=FACE_BOUND('',#79,.T.);
#54=FACE_BOUND('',#80,.T.);
#55=FACE_BOUND('',#82,.T.);
#56=FACE_BOUND('',#83,.T.);
#57=FACE_BOUND('',#85,.T.);
#58=FACE_BOUND('',#86,.T.);
#59=FACE_BOUND('',#87,.T.);
#60=FACE_BOUND('',#88,.T.);
#61=ADVANCED_FACE('',(#74),#69,.T.);
#62=ADVANCED_FACE('',(#53,#54),#51,.T.);
#63=ADVANCED_FACE('',(#75),#70,.F.);
#64=ADVANCED_FACE('',(#55,#56),#52,.T.);
#65=ADVANCED_FACE('',(#76),#71,.T.);
#66=ADVANCED_FACE('',(#57,#58),#72,.T.);
#67=ADVANCED_FACE('',(#59,#60),#36,.T.);
#68=ADVANCED_FACE('',(#77),#73,.T.);
#69=PLANE('',#156);
#70=PLANE('',#159);
#71=PLANE('',#163);
#72=PLANE('',#166);
#73=PLANE('',#168);
#74=FACE_OUTER_BOUND('',#78,.T.);
#75=FACE_OUTER_BOUND('',#81,.T.);
#76=FACE_OUTER_BOUND('',#84,.T.);
#77=FACE_OUTER_BOUND('',#89,.T.);
#78=EDGE_LOOP('',(#90));
#79=EDGE_LOOP('',(#91));
#80=EDGE_LOOP('',(#92));
#81=EDGE_LOOP('',(#93));
#82=EDGE_LOOP('',(#94));
#83=EDGE_LOOP('',(#95));
#84=EDGE_LOOP('',(#96));
#85=EDGE_LOOP('',(#97));
#86=EDGE_LOOP('',(#98));
#87=EDGE_LOOP('',(#99));
#88=EDGE_LOOP('',(#100));
#89=EDGE_LOOP('',(#101));
#90=ORIENTED_EDGE('',*,*,#108,.T.);
#91=ORIENTED_EDGE('',*,*,#109,.F.);
#92=ORIENTED_EDGE('',*,*,#108,.F.);
#93=ORIENTED_EDGE('',*,*,#109,.T.);
#94=ORIENTED_EDGE('',*,*,#110,.T.);
#95=ORIENTED_EDGE('',*,*,#111,.F.);
#96=ORIENTED_EDGE('',*,*,#110,.F.);
#97=ORIENTED_EDGE('',*,*,#112,.T.);
#98=ORIENTED_EDGE('',*,*,#113,.F.);
#99=ORIENTED_EDGE('',*,*,#111,.T.);
#100=ORIENTED_EDGE('',*,*,#112,.F.);
#101=ORIENTED_EDGE('',*,*,#113,.T.);
#102=VERTEX_POINT('',#224);
#103=VERTEX_POINT('',#227);
#104=VERTEX_POINT('',#231);
#105=VERTEX_POINT('',#233);
#106=VERTEX_POINT('',#237);
#107=VERTEX_POINT('',#239);
#108=EDGE_CURVE('',#102,#102,#114,.T.);
#109=EDGE_CURVE('',#103,#103,#115,.T.);
#110=EDGE_CURVE('',#104,#104,#116,.T.);
#111=EDGE_CURVE('',#105,#105,#117,.T.);
#112=EDGE_CURVE('',#106,#106,#118,.T.);
#113=EDGE_CURVE('',#107,#107,#119,.T.);
#114=CIRCLE('',#155,6.00000000000001);
#115=CIRCLE('',#157,5.99563667685895);
#116=CIRCLE('',#160,5.);
#117=CIRCLE('',#161,6.);
#118=CIRCLE('',#164,6.);
#119=CIRCLE('',#165,5.99563667685895);
#120=CURVE_STYLE('',#125,POSITIVE_LENGTH_MEASURE(0.18),#124);
#121=CURVE_STYLE('',#126,POSITIVE_LENGTH_MEASURE(0.18),#148);
#122=CURVE_STYLE('',#127,POSITIVE_LENGTH_MEASURE(0.18),#148);
#123=CURVE_STYLE('',#128,POSITIVE_LENGTH_MEASURE(0.18),#148);
#124=DRAUGHTING_PRE_DEFINED_COLOUR('blue');
#125=DRAUGHTING_PRE_DEFINED_CURVE_FONT('continuous');
#126=DRAUGHTING_PRE_DEFINED_CURVE_FONT('continuous');
#127=DRAUGHTING_PRE_DEFINED_CURVE_FONT('continuous');
#128=DRAUGHTING_PRE_DEFINED_CURVE_FONT('continuous');
#129=B_SPLINE_CURVE_WITH_KNOTS('CUTTING PART LINE',3,(#207,#208,#209,#210,
#211,#212,#213,#214,#215,#216,#217,#218,#219),.UNSPECIFIED.,.T.,.F.,(4,
3,3,3,4),(0.,0.446445963420676,0.500019479030264,0.946465444150114,1.),
 .UNSPECIFIED.);
#130=PRESENTATION_LAYER_ASSIGNMENT('1','Layer 1',(#206,#129,#152,#153,#154,
#47,#48));
#131=STYLED_ITEM('',(#138),#206);
#132=STYLED_ITEM('',(#139),#129);
#133=STYLED_ITEM('',(#140),#152);
#134=STYLED_ITEM('',(#141),#153);
#135=STYLED_ITEM('',(#142),#154);
#136=STYLED_ITEM('',(#143),#47);
#137=STYLED_ITEM('',(#144),#48);
#138=PRESENTATION_STYLE_ASSIGNMENT((#145));
#139=PRESENTATION_STYLE_ASSIGNMENT((#120));
#140=PRESENTATION_STYLE_ASSIGNMENT((#121));
#141=PRESENTATION_STYLE_ASSIGNMENT((#122));
#142=PRESENTATION_STYLE_ASSIGNMENT((#123));
#143=PRESENTATION_STYLE_ASSIGNMENT((#37));
#144=PRESENTATION_STYLE_ASSIGNMENT((#38));
#145=POINT_STYLE('',#146,POSITIVE_LENGTH_MEASURE(3.),#147);
#146=PRE_DEFINED_POINT_MARKER_SYMBOL('plus');
#147=COLOUR_RGB('Medium Royal',0.301960784313725,0.427450980392157,0.701960784313725);
#148=COLOUR_RGB('Pale Maroon',0.811764705882353,0.603921568627451,0.611764705882353);
#149=COLOUR_RGB('light gray',0.8,0.8,0.8);
#150=COLOUR_RGB('medium gray',0.490196078431373,0.490196078431373,0.490196078431373);
#151=AXIS2_PLACEMENT_3D('',#205,#169,#170);
#152=AXIS2_PLACEMENT_3D('MCS',#220,#171,#172);
#153=AXIS2_PLACEMENT_3D('PCS',#221,#173,#174);
#154=AXIS2_PLACEMENT_3D('CIP',#222,#175,#176);
#155=AXIS2_PLACEMENT_3D('',#223,#177,#178);
#156=AXIS2_PLACEMENT_3D('',#225,#179,#180);
#157=AXIS2_PLACEMENT_3D('',#226,#181,#182);
#158=AXIS2_PLACEMENT_3D('',#228,#183,#184);
#159=AXIS2_PLACEMENT_3D('',#229,#185,#186);
#160=AXIS2_PLACEMENT_3D('',#230,#187,#188);
#161=AXIS2_PLACEMENT_3D('',#232,#189,#190);
#162=AXIS2_PLACEMENT_3D('',#234,#191,#192);
#163=AXIS2_PLACEMENT_3D('',#235,#193,#194);
#164=AXIS2_PLACEMENT_3D('',#236,#195,#196);
#165=AXIS2_PLACEMENT_3D('',#238,#197,#198);
#166=AXIS2_PLACEMENT_3D('',#240,#199,#200);
#167=AXIS2_PLACEMENT_3D('',#241,#201,#202);
#168=AXIS2_PLACEMENT_3D('',#242,#203,#204);
#169=DIRECTION('',(0.,0.,1.));
#170=DIRECTION('',(1.,0.,0.));
#171=DIRECTION('',(0.,0.,1.));
#172=DIRECTION('',(1.,0.,0.));
#173=DIRECTION('',(0.,0.,1.));
#174=DIRECTION('',(1.,0.,0.));
#175=DIRECTION('',(0.,0.,1.));
#176=DIRECTION('',(1.,0.,0.));
#177=DIRECTION('',(0.,0.,-1.));
#178=DIRECTION('',(-1.,0.,0.));
#179=DIRECTION('',(0.,0.,-1.));
#180=DIRECTION('',(-1.,0.,0.));
#181=DIRECTION('',(0.,0.,1.));
#182=DIRECTION('',(-1.,0.,0.));
#183=DIRECTION('',(0.,0.,-1.));
#184=DIRECTION('',(-1.,0.,-1.367883718504E-14));
#185=DIRECTION('',(0.,0.,-1.));
#186=DIRECTION('',(-1.,0.,0.));
#187=DIRECTION('',(0.,0.,-1.));
#188=DIRECTION('',(-1.,0.,0.));
#189=DIRECTION('',(0.,0.,-1.));
#190=DIRECTION('',(-1.,0.,0.));
#191=DIRECTION('',(0.,0.,-1.));
#192=DIRECTION('',(-1.,0.,1.10360141612839E-16));
#193=DIRECTION('',(0.,0.,1.));
#194=DIRECTION('',(1.,0.,0.));
#195=DIRECTION('',(0.,0.,-1.));
#196=DIRECTION('',(-1.,0.,0.));
#197=DIRECTION('',(0.,0.,-1.));
#198=DIRECTION('',(-1.,0.,0.));
#199=DIRECTION('',(0.,0.,-1.));
#200=DIRECTION('',(-1.,0.,0.));
#201=DIRECTION('',(0.,0.,-1.));
#202=DIRECTION('',(-1.,0.,0.));
#203=DIRECTION('',(0.,0.,-1.));
#204=DIRECTION('',(-1.,0.,0.));
#205=CARTESIAN_POINT('',(0.,0.,0.));
#206=CARTESIAN_POINT('CRP',(-6.,0.,-100.));
#207=CARTESIAN_POINT('',(0.,0.,-50.));
#208=CARTESIAN_POINT('',(0.,0.,-66.6666666666667));
#209=CARTESIAN_POINT('',(0.,0.,-83.3333333333333));
#210=CARTESIAN_POINT('',(0.,0.,-100.));
#211=CARTESIAN_POINT('',(-2.,0.,-100.));
#212=CARTESIAN_POINT('',(-4.,0.,-100.));
#213=CARTESIAN_POINT('',(-6.,0.,-100.));
#214=CARTESIAN_POINT('',(-5.99854555895298,0.,-83.3333333333333));
#215=CARTESIAN_POINT('',(-5.99709111790596,0.,-66.6666666666667));
#216=CARTESIAN_POINT('',(-5.99563667685894,0.,-50.));
#217=CARTESIAN_POINT('',(-3.99709111790596,0.,-50.));
#218=CARTESIAN_POINT('',(-1.99854555895298,0.,-50.));
#219=CARTESIAN_POINT('',(0.,0.,-50.));
#220=CARTESIAN_POINT('',(0.,0.,-45.));
#221=CARTESIAN_POINT('',(0.,0.,0.));
#222=CARTESIAN_POINT('',(0.,0.,-100.));
#223=CARTESIAN_POINT('',(0.,0.,-100.));
#224=CARTESIAN_POINT('',(-6.00000000000001,0.,-100.));
#225=CARTESIAN_POINT('',(2.22044604925031E-15,0.,-100.));
#226=CARTESIAN_POINT('',(0.,0.,-50.));
#227=CARTESIAN_POINT('',(-5.99563667685895,0.,-50.));
#228=CARTESIAN_POINT('',(0.,0.,-100.));
#229=CARTESIAN_POINT('',(0.,0.,-50.));
#230=CARTESIAN_POINT('',(0.,0.,0.));
#231=CARTESIAN_POINT('',(-5.,0.,0.));
#232=CARTESIAN_POINT('',(0.,0.,-1.));
#233=CARTESIAN_POINT('',(-6.,0.,-1.));
#234=CARTESIAN_POINT('',(0.,0.,-1.));
#235=CARTESIAN_POINT('',(5.,0.,1.57232817816079E-16));
#236=CARTESIAN_POINT('',(0.,0.,-50.));
#237=CARTESIAN_POINT('',(-6.,0.,-50.));
#238=CARTESIAN_POINT('',(0.,0.,-50.));
#239=CARTESIAN_POINT('',(-5.99563667685895,0.,-50.));
#240=CARTESIAN_POINT('',(5.99563667685895,0.,-50.));
#241=CARTESIAN_POINT('',(0.,0.,-45.));
#242=CARTESIAN_POINT('',(0.,0.,-50.));
#243=MECHANICAL_DESIGN_GEOMETRIC_PRESENTATION_REPRESENTATION('',(#131,#132,
#133,#134,#135,#136,#137),#244);
#244=(
GEOMETRIC_REPRESENTATION_CONTEXT(3)
GLOBAL_UNCERTAINTY_ASSIGNED_CONTEXT((#245))
GLOBAL_UNIT_ASSIGNED_CONTEXT((#251,#247,#246))
REPRESENTATION_CONTEXT('C5141-120D4S','TOP_LEVEL_ASSEMBLY_PART')
);
#245=UNCERTAINTY_MEASURE_WITH_UNIT(LENGTH_MEASURE(2.E-5),#251,
'DISTANCE_ACCURACY_VALUE','Maximum Tolerance applied to model');
#246=(
NAMED_UNIT(*)
SI_UNIT($,.STERADIAN.)
SOLID_ANGLE_UNIT()
);
#247=(
CONVERSION_BASED_UNIT('DEGREE',#249)
NAMED_UNIT(#248)
PLANE_ANGLE_UNIT()
);
#248=DIMENSIONAL_EXPONENTS(0.,0.,0.,0.,0.,0.,0.);
#249=PLANE_ANGLE_MEASURE_WITH_UNIT(PLANE_ANGLE_MEASURE(0.0174532925),#250);
#250=(
NAMED_UNIT(*)
PLANE_ANGLE_UNIT()
SI_UNIT($,.RADIAN.)
);
#251=(
LENGTH_UNIT()
NAMED_UNIT(*)
SI_UNIT(.MILLI.,.METRE.)
);
ENDSEC;
END-ISO-10303-21;
