ISO-10303-21;
HEADER;
/* Generated by software containing ST-Developer
 * from STEP Tools, Inc. (www.steptools.com) 
 */
/* OPTION: using custom schema-name function */

FILE_DESCRIPTION(
/* description */ (''),
/* implementation_level */ '2;1');

FILE_NAME(
/* name */ 'C5321-.016F2B.0Z2_Basic.stp',
/* time_stamp */ '2024-07-15T09:50:32+05:00',
/* author */ (''),
/* organization */ (''),
/* preprocessor_version */ 'ST-DEVELOPER v16.7',
/* originating_system */ 'SIEMENS PLM Software NX 12.0',
/* authorisation */ '');

FILE_SCHEMA (('AUTOMOTIVE_DESIGN { 1 0 10303 214 3 1 1 1 }'));
ENDSEC;

DATA;
#10=CONSTRUCTIVE_GEOMETRY_REPRESENTATION_RELATIONSHIP(
'supplemental geometry','',#34,#11);
#11=CONSTRUCTIVE_GEOMETRY_REPRESENTATION('supplemental geometry',(#142,
#143,#144),#243);
#12=GEOMETRICALLY_BOUNDED_WIREFRAME_SHAPE_REPRESENTATION(
'inpu6178431Fne99-None',(#35),#243);
#13=PROPERTY_DEFINITION_REPRESENTATION(#17,#15);
#14=PROPERTY_DEFINITION_REPRESENTATION(#18,#16);
#15=REPRESENTATION('',(#19),#243);
#16=REPRESENTATION('',(#20),#243);
#17=PROPERTY_DEFINITION('pmi validation property','',#25);
#18=PROPERTY_DEFINITION('pmi validation property','',#25);
#19=VALUE_REPRESENTATION_ITEM('number of annotations',COUNT_MEASURE(0.));
#20=VALUE_REPRESENTATION_ITEM('number of views',COUNT_MEASURE(0.));
#21=SHAPE_REPRESENTATION_RELATIONSHIP('None',
'relationship between inpu6178431Fne99-None and inpu6178431Fne99-None',
#34,#23);
#22=SHAPE_REPRESENTATION_RELATIONSHIP('None',
'relationship between inpu6178431Fne99-None and inpu6178431Fne99-None',
#34,#12);
#23=ADVANCED_BREP_SHAPE_REPRESENTATION('inpu6178431Fne99-None',(#47,#48),
#243);
#24=SHAPE_DEFINITION_REPRESENTATION(#25,#34);
#25=PRODUCT_DEFINITION_SHAPE('','',#26);
#26=PRODUCT_DEFINITION(' ','',#28,#27);
#27=PRODUCT_DEFINITION_CONTEXT('part definition',#33,'design');
#28=PRODUCT_DEFINITION_FORMATION_WITH_SPECIFIED_SOURCE(' ',' ',#30,
 .NOT_KNOWN.);
#29=PRODUCT_RELATED_PRODUCT_CATEGORY('part','',(#30));
#30=PRODUCT('inpu6178431Fne99','inpu6178431Fne99',' ',(#31));
#31=PRODUCT_CONTEXT(' ',#33,'mechanical');
#32=APPLICATION_PROTOCOL_DEFINITION('international standard',
'automotive_design',2010,#33);
#33=APPLICATION_CONTEXT(
'core data for automotive mechanical design processes');
#34=SHAPE_REPRESENTATION('inpu6178431Fne99-None',(#141),#243);
#35=GEOMETRIC_CURVE_SET('None',(#184,#118));
#36=SPHERICAL_SURFACE('',#152,0.198437499999997);
#37=SURFACE_STYLE_USAGE(.BOTH.,#39);
#38=SURFACE_STYLE_USAGE(.BOTH.,#40);
#39=SURFACE_SIDE_STYLE('',(#41));
#40=SURFACE_SIDE_STYLE('',(#42));
#41=SURFACE_STYLE_FILL_AREA(#43);
#42=SURFACE_STYLE_FILL_AREA(#44);
#43=FILL_AREA_STYLE('',(#45));
#44=FILL_AREA_STYLE('',(#46));
#45=FILL_AREA_STYLE_COLOUR('',#139);
#46=FILL_AREA_STYLE_COLOUR('',#140);
#47=MANIFOLD_SOLID_BREP('NOCUT',#49);
#48=MANIFOLD_SOLID_BREP('CUT',#50);
#49=CLOSED_SHELL('',(#62,#63,#64,#65));
#50=CLOSED_SHELL('',(#66,#67,#68));
#51=CYLINDRICAL_SURFACE('',#149,1.5875);
#52=CONICAL_SURFACE('',#148,0.198437499999994,16.);
#53=CONICAL_SURFACE('',#153,0.198437499244403,0.00499999999997138);
#54=B_SPLINE_CURVE_WITH_KNOTS('',3,(#206,#207,#208,#209,#210,#211,#212,
#213,#214,#215,#216,#217,#218),.UNSPECIFIED.,.T.,.F.,(1,3,3,3,3,3,1),(-0.25,
0.,0.25,0.5,0.75,1.,1.25),.UNSPECIFIED.);
#55=B_SPLINE_CURVE_WITH_KNOTS('',3,(#226,#227,#228,#229,#230,#231,#232,
#233,#234,#235,#236,#237,#238),.UNSPECIFIED.,.T.,.F.,(1,3,3,3,3,3,1),(-0.25,
0.,0.25,0.5,0.75,1.,1.25),.UNSPECIFIED.);
#56=FACE_BOUND('',#77,.T.);
#57=FACE_BOUND('',#78,.T.);
#58=FACE_BOUND('',#79,.T.);
#59=FACE_BOUND('',#80,.T.);
#60=FACE_BOUND('',#83,.T.);
#61=FACE_BOUND('',#84,.T.);
#62=ADVANCED_FACE('',(#72),#69,.T.);
#63=ADVANCED_FACE('',(#56,#57),#52,.T.);
#64=ADVANCED_FACE('',(#58,#59),#51,.T.);
#65=ADVANCED_FACE('',(#73),#70,.T.);
#66=ADVANCED_FACE('',(#74),#36,.T.);
#67=ADVANCED_FACE('',(#60,#61),#53,.T.);
#68=ADVANCED_FACE('',(#75),#71,.F.);
#69=PLANE('',#146);
#70=PLANE('',#150);
#71=PLANE('',#154);
#72=FACE_OUTER_BOUND('',#76,.T.);
#73=FACE_OUTER_BOUND('',#81,.T.);
#74=FACE_OUTER_BOUND('',#82,.T.);
#75=FACE_OUTER_BOUND('',#85,.T.);
#76=EDGE_LOOP('',(#86));
#77=EDGE_LOOP('',(#87));
#78=EDGE_LOOP('',(#88));
#79=EDGE_LOOP('',(#89));
#80=EDGE_LOOP('',(#90));
#81=EDGE_LOOP('',(#91));
#82=EDGE_LOOP('',(#92));
#83=EDGE_LOOP('',(#93));
#84=EDGE_LOOP('',(#94));
#85=EDGE_LOOP('',(#95));
#86=ORIENTED_EDGE('',*,*,#101,.F.);
#87=ORIENTED_EDGE('',*,*,#102,.T.);
#88=ORIENTED_EDGE('',*,*,#103,.F.);
#89=ORIENTED_EDGE('',*,*,#101,.T.);
#90=ORIENTED_EDGE('',*,*,#102,.F.);
#91=ORIENTED_EDGE('',*,*,#103,.T.);
#92=ORIENTED_EDGE('',*,*,#104,.T.);
#93=ORIENTED_EDGE('',*,*,#105,.F.);
#94=ORIENTED_EDGE('',*,*,#104,.F.);
#95=ORIENTED_EDGE('',*,*,#105,.T.);
#96=VERTEX_POINT('',#202);
#97=VERTEX_POINT('',#205);
#98=VERTEX_POINT('',#219);
#99=VERTEX_POINT('',#224);
#100=VERTEX_POINT('',#239);
#101=EDGE_CURVE('',#96,#96,#106,.T.);
#102=EDGE_CURVE('',#97,#97,#107,.T.);
#103=EDGE_CURVE('',#98,#98,#54,.T.);
#104=EDGE_CURVE('',#99,#99,#108,.T.);
#105=EDGE_CURVE('',#100,#100,#55,.T.);
#106=CIRCLE('',#145,1.5875);
#107=CIRCLE('',#147,1.5875);
#108=CIRCLE('',#151,0.198437499244403);
#109=CURVE_STYLE('',#114,POSITIVE_LENGTH_MEASURE(0.18),#113);
#110=CURVE_STYLE('',#115,POSITIVE_LENGTH_MEASURE(0.18),#138);
#111=CURVE_STYLE('',#116,POSITIVE_LENGTH_MEASURE(0.18),#138);
#112=CURVE_STYLE('',#117,POSITIVE_LENGTH_MEASURE(0.18),#138);
#113=DRAUGHTING_PRE_DEFINED_COLOUR('blue');
#114=DRAUGHTING_PRE_DEFINED_CURVE_FONT('continuous');
#115=DRAUGHTING_PRE_DEFINED_CURVE_FONT('continuous');
#116=DRAUGHTING_PRE_DEFINED_CURVE_FONT('continuous');
#117=DRAUGHTING_PRE_DEFINED_CURVE_FONT('continuous');
#118=TRIMMED_CURVE('CUTTING PART LINE',#119,(PARAMETER_VALUE(0.)),(
PARAMETER_VALUE(1.)),.T.,.PARAMETER.);
#119=(
BOUNDED_CURVE()
B_SPLINE_CURVE(3,(#185,#186,#187,#188,#189,#190,#191,#192,#193,#194,#195,
#196,#197),.UNSPECIFIED.,.T.,.F.)
B_SPLINE_CURVE_WITH_KNOTS((4,3,3,3,4),(0.,0.417949486740446,0.582086984624364,
0.895539982654649,1.),.UNSPECIFIED.)
CURVE()
GEOMETRIC_REPRESENTATION_ITEM()
RATIONAL_B_SPLINE_CURVE((1.,1.,1.,1.,0.804717284773134,0.804717284773134,
1.,1.,1.,1.,1.,1.,1.))
REPRESENTATION_ITEM('CUTTING PART LINE')
);
#120=PRESENTATION_LAYER_ASSIGNMENT('1','Layer 1',(#184,#118,#142,#143,#144,
#47,#48));
#121=STYLED_ITEM('',(#128),#184);
#122=STYLED_ITEM('',(#129),#118);
#123=STYLED_ITEM('',(#130),#142);
#124=STYLED_ITEM('',(#131),#143);
#125=STYLED_ITEM('',(#132),#144);
#126=STYLED_ITEM('',(#133),#47);
#127=STYLED_ITEM('',(#134),#48);
#128=PRESENTATION_STYLE_ASSIGNMENT((#135));
#129=PRESENTATION_STYLE_ASSIGNMENT((#109));
#130=PRESENTATION_STYLE_ASSIGNMENT((#110));
#131=PRESENTATION_STYLE_ASSIGNMENT((#111));
#132=PRESENTATION_STYLE_ASSIGNMENT((#112));
#133=PRESENTATION_STYLE_ASSIGNMENT((#37));
#134=PRESENTATION_STYLE_ASSIGNMENT((#38));
#135=POINT_STYLE('',#136,POSITIVE_LENGTH_MEASURE(3.),#137);
#136=PRE_DEFINED_POINT_MARKER_SYMBOL('plus');
#137=COLOUR_RGB('Medium Royal',0.2,0.4,0.8);
#138=COLOUR_RGB('Pale Maroon',0.811749446860456,0.603921568627451,0.611749446860456);
#139=COLOUR_RGB('Medium Gray',0.490196078431373,0.490196078431373,0.490196078431373);
#140=COLOUR_RGB('Light Gray',0.8,0.8,0.8);
#141=AXIS2_PLACEMENT_3D('',#183,#155,#156);
#142=AXIS2_PLACEMENT_3D('MCS',#198,#157,#158);
#143=AXIS2_PLACEMENT_3D('CIP',#199,#159,#160);
#144=AXIS2_PLACEMENT_3D('PCS',#200,#161,#162);
#145=AXIS2_PLACEMENT_3D('',#201,#163,#164);
#146=AXIS2_PLACEMENT_3D('',#203,#165,#166);
#147=AXIS2_PLACEMENT_3D('',#204,#167,#168);
#148=AXIS2_PLACEMENT_3D('',#220,#169,#170);
#149=AXIS2_PLACEMENT_3D('',#221,#171,#172);
#150=AXIS2_PLACEMENT_3D('',#222,#173,#174);
#151=AXIS2_PLACEMENT_3D('',#223,#175,#176);
#152=AXIS2_PLACEMENT_3D('',#225,#177,#178);
#153=AXIS2_PLACEMENT_3D('',#240,#179,#180);
#154=AXIS2_PLACEMENT_3D('',#241,#181,#182);
#155=DIRECTION('',(0.,0.,1.));
#156=DIRECTION('',(1.,0.,0.));
#157=DIRECTION('',(0.,0.,1.));
#158=DIRECTION('',(1.,0.,0.));
#159=DIRECTION('',(0.,0.,1.));
#160=DIRECTION('',(1.,0.,0.));
#161=DIRECTION('',(0.,0.,1.));
#162=DIRECTION('',(1.,0.,0.));
#163=DIRECTION('',(0.,0.,-1.));
#164=DIRECTION('',(-1.,0.,0.));
#165=DIRECTION('',(0.,0.,1.));
#166=DIRECTION('',(1.,0.,0.));
#167=DIRECTION('',(0.,0.,-1.));
#168=DIRECTION('',(-1.,0.,0.));
#169=DIRECTION('',(0.,0.,1.));
#170=DIRECTION('',(1.,0.,2.41820640190213E-17));
#171=DIRECTION('',(0.,0.,-1.));
#172=DIRECTION('',(-1.,0.,0.));
#173=DIRECTION('',(0.,0.,-1.));
#174=DIRECTION('',(-1.,0.,0.));
#175=DIRECTION('',(0.,0.,-1.));
#176=DIRECTION('',(-1.,0.,0.));
#177=DIRECTION('',(-6.12323399573677E-17,0.,-0.999999999999992));
#178=DIRECTION('',(-1.,0.,0.));
#179=DIRECTION('',(0.,0.,-1.));
#180=DIRECTION('',(-1.,0.,2.42870062205335E-14));
#181=DIRECTION('',(0.,0.,-1.));
#182=DIRECTION('',(-1.,0.,0.));
#183=CARTESIAN_POINT('',(0.,0.,0.));
#184=CARTESIAN_POINT('CRP',(-0.1984375,0.,-38.1));
#185=CARTESIAN_POINT('',(0.,0.,-37.30625));
#186=CARTESIAN_POINT('',(0.,0.,-37.5708333333333));
#187=CARTESIAN_POINT('',(0.,0.,-37.8354166666667));
#188=CARTESIAN_POINT('',(-4.34544366667957E-16,0.,-38.1));
#189=CARTESIAN_POINT('',(-0.116250039507207,0.,-38.1));
#190=CARTESIAN_POINT('',(-0.198447643974117,0.,-38.0177952221259));
#191=CARTESIAN_POINT('',(-0.198437499244403,0.,-37.9015451830613));
#192=CARTESIAN_POINT('',(-0.198420182809414,0.,-37.7031134553742));
#193=CARTESIAN_POINT('',(-0.198402866374429,0.,-37.5046817276871));
#194=CARTESIAN_POINT('',(-0.198385549939442,0.,-37.30625));
#195=CARTESIAN_POINT('',(-0.132257033292962,0.,-37.30625));
#196=CARTESIAN_POINT('',(-0.0661285166464808,0.,-37.30625));
#197=CARTESIAN_POINT('',(0.,0.,-37.30625));
#198=CARTESIAN_POINT('',(0.,0.,-27.999944));
#199=CARTESIAN_POINT('',(0.,0.,-38.1));
#200=CARTESIAN_POINT('',(0.,0.,0.));
#201=CARTESIAN_POINT('',(0.,0.,0.));
#202=CARTESIAN_POINT('',(-1.5875,0.,0.));
#203=CARTESIAN_POINT('',(1.5875,0.,8.5968480452997E-17));
#204=CARTESIAN_POINT('',(0.,0.,-32.4620133741022));
#205=CARTESIAN_POINT('',(-1.5875,0.,-32.4620133741022));
#206=CARTESIAN_POINT('',(-0.198437499999991,0.,-37.30625));
#207=CARTESIAN_POINT('',(-0.198437499999991,0.106015077582419,-37.30625));
#208=CARTESIAN_POINT('',(-0.103790326654762,0.198725171563262,-37.30625));
#209=CARTESIAN_POINT('',(0.,0.198437499999991,-37.30625));
#210=CARTESIAN_POINT('',(0.103790326654762,0.198149828436719,-37.30625));
#211=CARTESIAN_POINT('',(0.198725171563262,0.103790326654762,-37.30625));
#212=CARTESIAN_POINT('',(0.198437499999991,2.43015849205791E-17,-37.30625));
#213=CARTESIAN_POINT('',(0.198149828436719,-0.103790326654762,-37.30625));
#214=CARTESIAN_POINT('',(0.103790326654761,-0.198725171563262,-37.30625));
#215=CARTESIAN_POINT('',(2.71050543121376E-17,-0.198437499999991,-37.30625));
#216=CARTESIAN_POINT('',(-0.103790326654761,-0.198149828436719,-37.30625));
#217=CARTESIAN_POINT('',(-0.198437499999991,-0.10449030841673,-37.30625));
#218=CARTESIAN_POINT('',(-0.198437499999991,0.,-37.30625));
#219=CARTESIAN_POINT('',(-0.198437499999993,1.21507924602898E-17,-37.30625));
#220=CARTESIAN_POINT('',(0.,0.,-37.30625));
#221=CARTESIAN_POINT('',(0.,0.,-27.999944));
#222=CARTESIAN_POINT('',(0.,0.,-37.30625));
#223=CARTESIAN_POINT('',(0.,0.,-37.9015451830613));
#224=CARTESIAN_POINT('',(-0.198437499244403,0.,-37.9015451830613));
#225=CARTESIAN_POINT('',(0.,0.,-37.9015625));
#226=CARTESIAN_POINT('',(-0.198437499999991,0.,-37.30625));
#227=CARTESIAN_POINT('',(-0.198437499999991,-0.10449030841673,-37.30625));
#228=CARTESIAN_POINT('',(-0.103790326654761,-0.198149828436719,-37.30625));
#229=CARTESIAN_POINT('',(2.71050543121376E-17,-0.198437499999991,-37.30625));
#230=CARTESIAN_POINT('',(0.103790326654761,-0.198725171563262,-37.30625));
#231=CARTESIAN_POINT('',(0.198149828436719,-0.103790326654762,-37.30625));
#232=CARTESIAN_POINT('',(0.198437499999991,2.43015849205791E-17,-37.30625));
#233=CARTESIAN_POINT('',(0.198725171563262,0.103790326654762,-37.30625));
#234=CARTESIAN_POINT('',(0.103790326654762,0.198149828436719,-37.30625));
#235=CARTESIAN_POINT('',(0.,0.198437499999991,-37.30625));
#236=CARTESIAN_POINT('',(-0.103790326654762,0.198725171563262,-37.30625));
#237=CARTESIAN_POINT('',(-0.198437499999991,0.106015077582419,-37.30625));
#238=CARTESIAN_POINT('',(-0.198437499999991,0.,-37.30625));
#239=CARTESIAN_POINT('',(-0.198411524969717,-2.42952228730427E-17,-37.30625));
#240=CARTESIAN_POINT('',(0.,0.,-37.9015451830613));
#241=CARTESIAN_POINT('',(0.,0.,-37.30625));
#242=MECHANICAL_DESIGN_GEOMETRIC_PRESENTATION_REPRESENTATION('',(#121,#122,
#123,#124,#125,#126,#127),#243);
#243=(
GEOMETRIC_REPRESENTATION_CONTEXT(3)
GLOBAL_UNCERTAINTY_ASSIGNED_CONTEXT((#244))
GLOBAL_UNIT_ASSIGNED_CONTEXT((#250,#246,#245))
REPRESENTATION_CONTEXT('C5321-.016F2B','TOP_LEVEL_ASSEMBLY_PART')
);
#244=UNCERTAINTY_MEASURE_WITH_UNIT(LENGTH_MEASURE(0.0508),#250,
'DISTANCE_ACCURACY_VALUE','Maximum Tolerance applied to model');
#245=(
NAMED_UNIT(*)
SI_UNIT($,.STERADIAN.)
SOLID_ANGLE_UNIT()
);
#246=(
CONVERSION_BASED_UNIT('DEGREE',#248)
NAMED_UNIT(#247)
PLANE_ANGLE_UNIT()
);
#247=DIMENSIONAL_EXPONENTS(0.,0.,0.,0.,0.,0.,0.);
#248=PLANE_ANGLE_MEASURE_WITH_UNIT(PLANE_ANGLE_MEASURE(0.0174532925),#249);
#249=(
NAMED_UNIT(*)
PLANE_ANGLE_UNIT()
SI_UNIT($,.RADIAN.)
);
#250=(
LENGTH_UNIT()
NAMED_UNIT(*)
SI_UNIT(.MILLI.,.METRE.)
);
ENDSEC;
END-ISO-10303-21;
