ISO-10303-21;
HEADER;
/* Generated by software containing ST-Developer
 * from STEP Tools, Inc. (www.steptools.com) 
 */
/* OPTION: using custom schema-name function */

FILE_DESCRIPTION(
/* description */ (''),
/* implementation_level */ '2;1');

FILE_NAME(
/* name */ 'C5321-.188XD2B.0DZ2_Basic.stp',
/* time_stamp */ '2024-07-19T08:32:38+05:00',
/* author */ (''),
/* organization */ (''),
/* preprocessor_version */ 'ST-DEVELOPER v18.102',
/* originating_system */ 'SIEMENS PLM Software NX2206.8101',
/* authorisation */ '');

FILE_SCHEMA (('AUTOMOTIVE_DESIGN { 1 0 10303 214 3 1 1 1 }'));
ENDSEC;

DATA;
#10=CONSTRUCTIVE_GEOMETRY_REPRESENTATION_RELATIONSHIP(
'supplemental geometry','',#34,#11);
#11=CONSTRUCTIVE_GEOMETRY_REPRESENTATION('supplemental geometry',(#175,
#176,#177),#280);
#12=GEOMETRICALLY_BOUNDED_WIREFRAME_SHAPE_REPRESENTATION(
'inpu19109300uokz-None',(#35),#280);
#13=PROPERTY_DEFINITION_REPRESENTATION(#17,#15);
#14=PROPERTY_DEFINITION_REPRESENTATION(#18,#16);
#15=REPRESENTATION('',(#19),#280);
#16=REPRESENTATION('',(#20),#280);
#17=PROPERTY_DEFINITION('pmi validation property','',#25);
#18=PROPERTY_DEFINITION('pmi validation property','',#25);
#19=VALUE_REPRESENTATION_ITEM('number of annotations',COUNT_MEASURE(0.));
#20=VALUE_REPRESENTATION_ITEM('number of views',COUNT_MEASURE(0.));
#21=SHAPE_REPRESENTATION_RELATIONSHIP('None',
'relationship between inpu19109300uokz-None and inpu19109300uokz-None',
#34,#23);
#22=SHAPE_REPRESENTATION_RELATIONSHIP('None',
'relationship between inpu19109300uokz-None and inpu19109300uokz-None',
#34,#12);
#23=ADVANCED_BREP_SHAPE_REPRESENTATION('inpu19109300uokz-None',(#52,#53,
#54),#280);
#24=SHAPE_DEFINITION_REPRESENTATION(#25,#34);
#25=PRODUCT_DEFINITION_SHAPE('','',#26);
#26=PRODUCT_DEFINITION(' ','',#28,#27);
#27=PRODUCT_DEFINITION_CONTEXT('part definition',#33,'design');
#28=PRODUCT_DEFINITION_FORMATION_WITH_SPECIFIED_SOURCE(' ',' ',#30,
 .NOT_KNOWN.);
#29=PRODUCT_RELATED_PRODUCT_CATEGORY('part','',(#30));
#30=PRODUCT('inpu19109300uokz','inpu19109300uokz',' ',(#31));
#31=PRODUCT_CONTEXT(' ',#33,'mechanical');
#32=APPLICATION_PROTOCOL_DEFINITION('international standard',
'automotive_design',2010,#33);
#33=APPLICATION_CONTEXT(
'core data for automotive mechanical design processes');
#34=SHAPE_REPRESENTATION('inpu19109300uokz-None',(#174),#280);
#35=GEOMETRIC_CURVE_SET('None',(#238,#149));
#36=CYLINDRICAL_SURFACE('',#191,2.38125);
#37=SURFACE_STYLE_USAGE(.BOTH.,#40);
#38=SURFACE_STYLE_USAGE(.BOTH.,#41);
#39=SURFACE_STYLE_USAGE(.BOTH.,#42);
#40=SURFACE_SIDE_STYLE('',(#43));
#41=SURFACE_SIDE_STYLE('',(#44));
#42=SURFACE_SIDE_STYLE('',(#45));
#43=SURFACE_STYLE_FILL_AREA(#46);
#44=SURFACE_STYLE_FILL_AREA(#47);
#45=SURFACE_STYLE_FILL_AREA(#48);
#46=FILL_AREA_STYLE('',(#49));
#47=FILL_AREA_STYLE('',(#50));
#48=FILL_AREA_STYLE('',(#51));
#49=FILL_AREA_STYLE_COLOUR('',#172);
#50=FILL_AREA_STYLE_COLOUR('',#172);
#51=FILL_AREA_STYLE_COLOUR('',#173);
#52=MANIFOLD_SOLID_BREP('CUT',#55);
#53=MANIFOLD_SOLID_BREP('CUT',#56);
#54=MANIFOLD_SOLID_BREP('NOCUT',#57);
#55=CLOSED_SHELL('',(#73,#74,#75));
#56=CLOSED_SHELL('',(#76,#77,#78));
#57=CLOSED_SHELL('',(#79,#80,#81,#82));
#58=PLANE('',#182);
#59=PLANE('',#187);
#60=PLANE('',#189);
#61=PLANE('',#193);
#62=PLANE('',#194);
#63=CONICAL_SURFACE('',#181,2.38124999093287,0.00500000000000608);
#64=CONICAL_SURFACE('',#186,2.38062659927335,0.00499999999997129);
#65=FACE_BOUND('',#92,.T.);
#66=FACE_BOUND('',#93,.T.);
#67=FACE_BOUND('',#96,.T.);
#68=FACE_BOUND('',#97,.T.);
#69=FACE_BOUND('',#100,.T.);
#70=FACE_BOUND('',#101,.T.);
#71=FACE_BOUND('',#102,.T.);
#72=FACE_BOUND('',#103,.T.);
#73=ADVANCED_FACE('',(#85),#83,.T.);
#74=ADVANCED_FACE('',(#65,#66),#63,.T.);
#75=ADVANCED_FACE('',(#86),#58,.T.);
#76=ADVANCED_FACE('',(#87),#84,.T.);
#77=ADVANCED_FACE('',(#67,#68),#64,.T.);
#78=ADVANCED_FACE('',(#88),#59,.F.);
#79=ADVANCED_FACE('',(#89),#60,.T.);
#80=ADVANCED_FACE('',(#69,#70),#36,.T.);
#81=ADVANCED_FACE('',(#71,#72),#61,.T.);
#82=ADVANCED_FACE('',(#90),#62,.T.);
#83=SPHERICAL_SURFACE('',#179,2.38124999999999);
#84=SPHERICAL_SURFACE('',#184,2.38125);
#85=FACE_OUTER_BOUND('',#91,.T.);
#86=FACE_OUTER_BOUND('',#94,.T.);
#87=FACE_OUTER_BOUND('',#95,.T.);
#88=FACE_OUTER_BOUND('',#98,.T.);
#89=FACE_OUTER_BOUND('',#99,.T.);
#90=FACE_OUTER_BOUND('',#104,.T.);
#91=EDGE_LOOP('',(#105));
#92=EDGE_LOOP('',(#106));
#93=EDGE_LOOP('',(#107));
#94=EDGE_LOOP('',(#108));
#95=EDGE_LOOP('',(#109));
#96=EDGE_LOOP('',(#110));
#97=EDGE_LOOP('',(#111));
#98=EDGE_LOOP('',(#112));
#99=EDGE_LOOP('',(#113));
#100=EDGE_LOOP('',(#114));
#101=EDGE_LOOP('',(#115));
#102=EDGE_LOOP('',(#116));
#103=EDGE_LOOP('',(#117));
#104=EDGE_LOOP('',(#118));
#105=ORIENTED_EDGE('',*,*,#126,.T.);
#106=ORIENTED_EDGE('',*,*,#127,.F.);
#107=ORIENTED_EDGE('',*,*,#126,.F.);
#108=ORIENTED_EDGE('',*,*,#127,.T.);
#109=ORIENTED_EDGE('',*,*,#128,.F.);
#110=ORIENTED_EDGE('',*,*,#128,.T.);
#111=ORIENTED_EDGE('',*,*,#129,.F.);
#112=ORIENTED_EDGE('',*,*,#129,.T.);
#113=ORIENTED_EDGE('',*,*,#130,.T.);
#114=ORIENTED_EDGE('',*,*,#131,.T.);
#115=ORIENTED_EDGE('',*,*,#130,.F.);
#116=ORIENTED_EDGE('',*,*,#132,.T.);
#117=ORIENTED_EDGE('',*,*,#131,.F.);
#118=ORIENTED_EDGE('',*,*,#132,.F.);
#119=VERTEX_POINT('',#256);
#120=VERTEX_POINT('',#259);
#121=VERTEX_POINT('',#263);
#122=VERTEX_POINT('',#266);
#123=VERTEX_POINT('',#270);
#124=VERTEX_POINT('',#273);
#125=VERTEX_POINT('',#276);
#126=EDGE_CURVE('',#119,#119,#133,.T.);
#127=EDGE_CURVE('',#120,#120,#134,.T.);
#128=EDGE_CURVE('',#121,#121,#135,.T.);
#129=EDGE_CURVE('',#122,#122,#136,.T.);
#130=EDGE_CURVE('',#123,#123,#137,.T.);
#131=EDGE_CURVE('',#124,#124,#138,.T.);
#132=EDGE_CURVE('',#125,#125,#139,.T.);
#133=CIRCLE('',#178,2.38124999093287);
#134=CIRCLE('',#180,2.38062659927335);
#135=CIRCLE('',#183,2.38124999093287);
#136=CIRCLE('',#185,2.38062659927335);
#137=CIRCLE('',#188,2.38125);
#138=CIRCLE('',#190,2.38125);
#139=CIRCLE('',#192,2.38062659927335);
#140=CURVE_STYLE('',#145,POSITIVE_LENGTH_MEASURE(0.18),#144);
#141=CURVE_STYLE('',#146,POSITIVE_LENGTH_MEASURE(0.18),#171);
#142=CURVE_STYLE('',#147,POSITIVE_LENGTH_MEASURE(0.18),#171);
#143=CURVE_STYLE('',#148,POSITIVE_LENGTH_MEASURE(0.18),#171);
#144=DRAUGHTING_PRE_DEFINED_COLOUR('blue');
#145=DRAUGHTING_PRE_DEFINED_CURVE_FONT('continuous');
#146=DRAUGHTING_PRE_DEFINED_CURVE_FONT('continuous');
#147=DRAUGHTING_PRE_DEFINED_CURVE_FONT('continuous');
#148=DRAUGHTING_PRE_DEFINED_CURVE_FONT('continuous');
#149=TRIMMED_CURVE('CUTTING PART LINE',#150,(PARAMETER_VALUE(0.)),(
PARAMETER_VALUE(1.)),.T.,.PARAMETER.);
#150=(
BOUNDED_CURVE()
B_SPLINE_CURVE(3,(#239,#240,#241,#242,#243,#244,#245,#246,#247,#248,#249,
#250,#251),.UNSPECIFIED.,.T.,.F.)
B_SPLINE_CURVE_WITH_KNOTS((4,3,3,3,4),(0.,0.417949486750921,0.582086984635825,
0.89553998264764,1.),.UNSPECIFIED.)
CURVE()
GEOMETRIC_REPRESENTATION_ITEM()
RATIONAL_B_SPLINE_CURVE((1.,1.,1.,1.,0.804717284773136,0.804717284773136,
1.,1.,1.,1.,1.,1.,1.))
REPRESENTATION_ITEM('CUTTING PART LINE')
);
#151=PRESENTATION_LAYER_ASSIGNMENT('1','Layer 1',(#238,#149,#175,#176,#177,
#52,#53,#54));
#152=STYLED_ITEM('',(#160),#238);
#153=STYLED_ITEM('',(#161),#149);
#154=STYLED_ITEM('',(#162),#175);
#155=STYLED_ITEM('',(#163),#176);
#156=STYLED_ITEM('',(#164),#177);
#157=STYLED_ITEM('',(#165),#52);
#158=STYLED_ITEM('',(#166),#53);
#159=STYLED_ITEM('',(#167),#54);
#160=PRESENTATION_STYLE_ASSIGNMENT((#168));
#161=PRESENTATION_STYLE_ASSIGNMENT((#140));
#162=PRESENTATION_STYLE_ASSIGNMENT((#141));
#163=PRESENTATION_STYLE_ASSIGNMENT((#142));
#164=PRESENTATION_STYLE_ASSIGNMENT((#143));
#165=PRESENTATION_STYLE_ASSIGNMENT((#37));
#166=PRESENTATION_STYLE_ASSIGNMENT((#38));
#167=PRESENTATION_STYLE_ASSIGNMENT((#39));
#168=POINT_STYLE('',#169,POSITIVE_LENGTH_MEASURE(3.),#170);
#169=PRE_DEFINED_POINT_MARKER_SYMBOL('plus');
#170=COLOUR_RGB('Medium Royal',0.301960784313725,0.427450980392157,0.701960784313725);
#171=COLOUR_RGB('Pale Maroon',0.811764705882353,0.603921568627451,0.611764705882353);
#172=COLOUR_RGB('light gray',0.8,0.8,0.8);
#173=COLOUR_RGB('medium gray',0.490196078431373,0.490196078431373,0.490196078431373);
#174=AXIS2_PLACEMENT_3D('',#237,#195,#196);
#175=AXIS2_PLACEMENT_3D('MCS',#252,#197,#198);
#176=AXIS2_PLACEMENT_3D('PCS',#253,#199,#200);
#177=AXIS2_PLACEMENT_3D('CIP',#254,#201,#202);
#178=AXIS2_PLACEMENT_3D('',#255,#203,#204);
#179=AXIS2_PLACEMENT_3D('',#257,#205,#206);
#180=AXIS2_PLACEMENT_3D('',#258,#207,#208);
#181=AXIS2_PLACEMENT_3D('',#260,#209,#210);
#182=AXIS2_PLACEMENT_3D('',#261,#211,#212);
#183=AXIS2_PLACEMENT_3D('',#262,#213,#214);
#184=AXIS2_PLACEMENT_3D('',#264,#215,#216);
#185=AXIS2_PLACEMENT_3D('',#265,#217,#218);
#186=AXIS2_PLACEMENT_3D('',#267,#219,#220);
#187=AXIS2_PLACEMENT_3D('',#268,#221,#222);
#188=AXIS2_PLACEMENT_3D('',#269,#223,#224);
#189=AXIS2_PLACEMENT_3D('',#271,#225,#226);
#190=AXIS2_PLACEMENT_3D('',#272,#227,#228);
#191=AXIS2_PLACEMENT_3D('',#274,#229,#230);
#192=AXIS2_PLACEMENT_3D('',#275,#231,#232);
#193=AXIS2_PLACEMENT_3D('',#277,#233,#234);
#194=AXIS2_PLACEMENT_3D('',#278,#235,#236);
#195=DIRECTION('',(0.,0.,1.));
#196=DIRECTION('',(1.,0.,0.));
#197=DIRECTION('',(0.,0.,1.));
#198=DIRECTION('',(1.,0.,0.));
#199=DIRECTION('',(0.,0.,1.));
#200=DIRECTION('',(1.,0.,0.));
#201=DIRECTION('',(0.,0.,1.));
#202=DIRECTION('',(1.,0.,0.));
#203=DIRECTION('',(0.,0.,-1.));
#204=DIRECTION('',(-1.,0.,0.));
#205=DIRECTION('',(-6.12323399573676E-17,0.,-1.));
#206=DIRECTION('',(-1.,0.,0.));
#207=DIRECTION('',(0.,0.,1.));
#208=DIRECTION('',(-1.,0.,0.));
#209=DIRECTION('',(0.,0.,-1.));
#210=DIRECTION('',(-1.,0.,4.35698353750049E-14));
#211=DIRECTION('',(0.,0.,1.));
#212=DIRECTION('',(1.,0.,0.));
#213=DIRECTION('',(0.,0.,-1.));
#214=DIRECTION('',(-1.,0.,0.));
#215=DIRECTION('',(6.12323399573677E-17,0.,-1.));
#216=DIRECTION('',(1.,0.,0.));
#217=DIRECTION('',(0.,0.,-1.));
#218=DIRECTION('',(1.,0.,0.));
#219=DIRECTION('',(0.,0.,1.));
#220=DIRECTION('',(1.,0.,-2.81166717086977E-15));
#221=DIRECTION('',(0.,0.,1.));
#222=DIRECTION('',(1.,0.,0.));
#223=DIRECTION('',(0.,0.,-1.));
#224=DIRECTION('',(-1.,0.,0.));
#225=DIRECTION('',(0.,0.,-1.));
#226=DIRECTION('',(-1.,0.,0.));
#227=DIRECTION('',(0.,0.,-1.));
#228=DIRECTION('',(-1.,0.,0.));
#229=DIRECTION('',(0.,0.,-1.));
#230=DIRECTION('',(-1.,0.,0.));
#231=DIRECTION('',(0.,0.,-1.));
#232=DIRECTION('',(1.,0.,0.));
#233=DIRECTION('',(0.,0.,1.));
#234=DIRECTION('',(1.,0.,0.));
#235=DIRECTION('',(0.,0.,1.));
#236=DIRECTION('',(1.,0.,0.));
#237=CARTESIAN_POINT('',(0.,0.,0.));
#238=CARTESIAN_POINT('CRP',(-2.38125,0.,-28.));
#239=CARTESIAN_POINT('',(0.,0.,-18.475));
#240=CARTESIAN_POINT('',(0.,0.,-21.65));
#241=CARTESIAN_POINT('',(0.,0.,-24.825));
#242=CARTESIAN_POINT('',(7.29047547617413E-17,0.,-28.));
#243=CARTESIAN_POINT('',(-1.39500047408649,0.,-28.));
#244=CARTESIAN_POINT('',(-2.38137172768942,0.,-27.0135426655109));
#245=CARTESIAN_POINT('',(-2.38124999093287,0.,-25.6185421967362));
#246=CARTESIAN_POINT('',(-2.38104219371303,0.,-23.2373614644908));
#247=CARTESIAN_POINT('',(-2.38083439649319,0.,-20.8561807322454));
#248=CARTESIAN_POINT('',(-2.38062659927335,0.,-18.475));
#249=CARTESIAN_POINT('',(-1.58708439951557,0.,-18.475));
#250=CARTESIAN_POINT('',(-0.793542199757783,0.,-18.475));
#251=CARTESIAN_POINT('',(0.,0.,-18.475));
#252=CARTESIAN_POINT('',(0.,0.,-14.));
#253=CARTESIAN_POINT('',(0.,0.,0.));
#254=CARTESIAN_POINT('',(0.,0.,-28.));
#255=CARTESIAN_POINT('',(0.,0.,-25.6185421967362));
#256=CARTESIAN_POINT('',(-2.38124999093287,0.,-25.6185421967362));
#257=CARTESIAN_POINT('',(3.46944695195361E-15,0.,-25.61875));
#258=CARTESIAN_POINT('',(0.,0.,-18.475));
#259=CARTESIAN_POINT('',(-2.38062659927335,0.,-18.475));
#260=CARTESIAN_POINT('',(0.,0.,-25.6185421967362));
#261=CARTESIAN_POINT('',(0.,0.,-18.475));
#262=CARTESIAN_POINT('',(0.,0.,-2.3814578032638));
#263=CARTESIAN_POINT('',(-2.38124999093287,0.,-2.3814578032638));
#264=CARTESIAN_POINT('',(4.33680868994202E-16,0.,-2.38125));
#265=CARTESIAN_POINT('',(0.,0.,-9.525));
#266=CARTESIAN_POINT('',(2.38062659927335,0.,-9.525));
#267=CARTESIAN_POINT('',(0.,0.,-9.525));
#268=CARTESIAN_POINT('',(0.,0.,-9.525));
#269=CARTESIAN_POINT('',(0.,0.,-18.474999945598));
#270=CARTESIAN_POINT('',(-2.38125,0.,-18.474999945598));
#271=CARTESIAN_POINT('',(2.38062659927335,0.,-18.474999972799));
#272=CARTESIAN_POINT('',(0.,0.,-9.525));
#273=CARTESIAN_POINT('',(-2.38125,0.,-9.525));
#274=CARTESIAN_POINT('',(0.,0.,-14.));
#275=CARTESIAN_POINT('',(0.,0.,-9.525));
#276=CARTESIAN_POINT('',(2.38062659927335,0.,-9.525));
#277=CARTESIAN_POINT('',(2.38125,0.,-9.525));
#278=CARTESIAN_POINT('',(0.,0.,-9.525));
#279=MECHANICAL_DESIGN_GEOMETRIC_PRESENTATION_REPRESENTATION('',(#152,#153,
#154,#155,#156,#157,#158,#159),#280);
#280=(
GEOMETRIC_REPRESENTATION_CONTEXT(3)
GLOBAL_UNCERTAINTY_ASSIGNED_CONTEXT((#281))
GLOBAL_UNIT_ASSIGNED_CONTEXT((#287,#283,#282))
REPRESENTATION_CONTEXT('C5321-.188XD2B','TOP_LEVEL_ASSEMBLY_PART')
);
#281=UNCERTAINTY_MEASURE_WITH_UNIT(LENGTH_MEASURE(2.E-5),#287,
'DISTANCE_ACCURACY_VALUE','Maximum Tolerance applied to model');
#282=(
NAMED_UNIT(*)
SI_UNIT($,.STERADIAN.)
SOLID_ANGLE_UNIT()
);
#283=(
CONVERSION_BASED_UNIT('DEGREE',#285)
NAMED_UNIT(#284)
PLANE_ANGLE_UNIT()
);
#284=DIMENSIONAL_EXPONENTS(0.,0.,0.,0.,0.,0.,0.);
#285=PLANE_ANGLE_MEASURE_WITH_UNIT(PLANE_ANGLE_MEASURE(0.0174532925),#286);
#286=(
NAMED_UNIT(*)
PLANE_ANGLE_UNIT()
SI_UNIT($,.RADIAN.)
);
#287=(
LENGTH_UNIT()
NAMED_UNIT(*)
SI_UNIT(.MILLI.,.METRE.)
);
ENDSEC;
END-ISO-10303-21;
