ISO-10303-21;
HEADER;
/* Generated by software containing ST-Developer
 * from STEP Tools, Inc. (www.steptools.com) 
 */
/* OPTION: using custom schema-name function */

FILE_DESCRIPTION(
/* description */ (''),
/* implementation_level */ '2;1');

FILE_NAME(
/* name */ 'C5321-.281F3B.0Z2_Basic.stp',
/* time_stamp */ '2024-08-14T16:28:39+06:00',
/* author */ (''),
/* organization */ (''),
/* preprocessor_version */ 'ST-DEVELOPER v18.102',
/* originating_system */ 'SIEMENS PLM Software NX2206.8101',
/* authorisation */ '');

FILE_SCHEMA (('AUTOMOTIVE_DESIGN { 1 0 10303 214 3 1 1 1 }'));
ENDSEC;

DATA;
#10=CONSTRUCTIVE_GEOMETRY_REPRESENTATION_RELATIONSHIP(
'supplemental geometry','',#34,#11);
#11=CONSTRUCTIVE_GEOMETRY_REPRESENTATION('supplemental geometry',(#152,
#153,#154),#260);
#12=GEOMETRICALLY_BOUNDED_WIREFRAME_SHAPE_REPRESENTATION(
'inpu2C509F527fwn-None',(#35),#260);
#13=PROPERTY_DEFINITION_REPRESENTATION(#17,#15);
#14=PROPERTY_DEFINITION_REPRESENTATION(#18,#16);
#15=REPRESENTATION('',(#19),#260);
#16=REPRESENTATION('',(#20),#260);
#17=PROPERTY_DEFINITION('pmi validation property','',#25);
#18=PROPERTY_DEFINITION('pmi validation property','',#25);
#19=VALUE_REPRESENTATION_ITEM('number of annotations',COUNT_MEASURE(0.));
#20=VALUE_REPRESENTATION_ITEM('number of views',COUNT_MEASURE(0.));
#21=SHAPE_REPRESENTATION_RELATIONSHIP('None',
'relationship between inpu2C509F527fwn-None and inpu2C509F527fwn-None',
#34,#23);
#22=SHAPE_REPRESENTATION_RELATIONSHIP('None',
'relationship between inpu2C509F527fwn-None and inpu2C509F527fwn-None',
#34,#12);
#23=ADVANCED_BREP_SHAPE_REPRESENTATION('inpu2C509F527fwn-None',(#48,#49),
#260);
#24=SHAPE_DEFINITION_REPRESENTATION(#25,#34);
#25=PRODUCT_DEFINITION_SHAPE('','',#26);
#26=PRODUCT_DEFINITION(' ','',#28,#27);
#27=PRODUCT_DEFINITION_CONTEXT('part definition',#33,'design');
#28=PRODUCT_DEFINITION_FORMATION_WITH_SPECIFIED_SOURCE(' ',' ',#30,
 .NOT_KNOWN.);
#29=PRODUCT_RELATED_PRODUCT_CATEGORY('part','',(#30));
#30=PRODUCT('inpu2C509F527fwn','inpu2C509F527fwn',' ',(#31));
#31=PRODUCT_CONTEXT(' ',#33,'mechanical');
#32=APPLICATION_PROTOCOL_DEFINITION('international standard',
'automotive_design',2010,#33);
#33=APPLICATION_CONTEXT(
'core data for automotive mechanical design processes');
#34=SHAPE_REPRESENTATION('inpu2C509F527fwn-None',(#151),#260);
#35=GEOMETRIC_CURVE_SET('None',(#206,#129));
#36=CYLINDRICAL_SURFACE('',#168,3.96875);
#37=TOROIDAL_SURFACE('',#167,16.271875,12.7);
#38=SURFACE_STYLE_USAGE(.BOTH.,#40);
#39=SURFACE_STYLE_USAGE(.BOTH.,#41);
#40=SURFACE_SIDE_STYLE('',(#42));
#41=SURFACE_SIDE_STYLE('',(#43));
#42=SURFACE_STYLE_FILL_AREA(#44);
#43=SURFACE_STYLE_FILL_AREA(#45);
#44=FILL_AREA_STYLE('',(#46));
#45=FILL_AREA_STYLE('',(#47));
#46=FILL_AREA_STYLE_COLOUR('',#149);
#47=FILL_AREA_STYLE_COLOUR('',#150);
#48=MANIFOLD_SOLID_BREP('CUT',#50);
#49=MANIFOLD_SOLID_BREP('NOCUT',#51);
#50=CLOSED_SHELL('',(#65,#66,#67));
#51=CLOSED_SHELL('',(#68,#69,#70,#71,#72));
#52=PLANE('',#159);
#53=PLANE('',#163);
#54=PLANE('',#165);
#55=CONICAL_SURFACE('',#158,3.57187498639931,0.00500000000000506);
#56=CONICAL_SURFACE('',#162,3.96875,44.9999999999999);
#57=FACE_BOUND('',#79,.T.);
#58=FACE_BOUND('',#80,.T.);
#59=FACE_BOUND('',#82,.T.);
#60=FACE_BOUND('',#83,.T.);
#61=FACE_BOUND('',#86,.T.);
#62=FACE_BOUND('',#87,.T.);
#63=FACE_BOUND('',#88,.T.);
#64=FACE_BOUND('',#89,.T.);
#65=ADVANCED_FACE('',(#74),#73,.T.);
#66=ADVANCED_FACE('',(#57,#58),#55,.T.);
#67=ADVANCED_FACE('',(#75),#52,.F.);
#68=ADVANCED_FACE('',(#59,#60),#56,.T.);
#69=ADVANCED_FACE('',(#76),#53,.T.);
#70=ADVANCED_FACE('',(#77),#54,.T.);
#71=ADVANCED_FACE('',(#61,#62),#37,.F.);
#72=ADVANCED_FACE('',(#63,#64),#36,.T.);
#73=SPHERICAL_SURFACE('',#156,3.571875);
#74=FACE_OUTER_BOUND('',#78,.T.);
#75=FACE_OUTER_BOUND('',#81,.T.);
#76=FACE_OUTER_BOUND('',#84,.T.);
#77=FACE_OUTER_BOUND('',#85,.T.);
#78=EDGE_LOOP('',(#90));
#79=EDGE_LOOP('',(#91));
#80=EDGE_LOOP('',(#92));
#81=EDGE_LOOP('',(#93));
#82=EDGE_LOOP('',(#94));
#83=EDGE_LOOP('',(#95));
#84=EDGE_LOOP('',(#96));
#85=EDGE_LOOP('',(#97));
#86=EDGE_LOOP('',(#98));
#87=EDGE_LOOP('',(#99));
#88=EDGE_LOOP('',(#100));
#89=EDGE_LOOP('',(#101));
#90=ORIENTED_EDGE('',*,*,#108,.T.);
#91=ORIENTED_EDGE('',*,*,#109,.F.);
#92=ORIENTED_EDGE('',*,*,#108,.F.);
#93=ORIENTED_EDGE('',*,*,#109,.T.);
#94=ORIENTED_EDGE('',*,*,#110,.T.);
#95=ORIENTED_EDGE('',*,*,#111,.F.);
#96=ORIENTED_EDGE('',*,*,#110,.F.);
#97=ORIENTED_EDGE('',*,*,#112,.T.);
#98=ORIENTED_EDGE('',*,*,#113,.T.);
#99=ORIENTED_EDGE('',*,*,#112,.F.);
#100=ORIENTED_EDGE('',*,*,#111,.T.);
#101=ORIENTED_EDGE('',*,*,#113,.F.);
#102=VERTEX_POINT('',#240);
#103=VERTEX_POINT('',#243);
#104=VERTEX_POINT('',#247);
#105=VERTEX_POINT('',#249);
#106=VERTEX_POINT('',#253);
#107=VERTEX_POINT('',#256);
#108=EDGE_CURVE('',#102,#102,#114,.T.);
#109=EDGE_CURVE('',#103,#103,#115,.T.);
#110=EDGE_CURVE('',#104,#104,#116,.T.);
#111=EDGE_CURVE('',#105,#105,#117,.T.);
#112=EDGE_CURVE('',#106,#106,#118,.T.);
#113=EDGE_CURVE('',#107,#107,#119,.T.);
#114=CIRCLE('',#155,3.57187498639931);
#115=CIRCLE('',#157,3.57052429238083);
#116=CIRCLE('',#160,3.66395);
#117=CIRCLE('',#161,3.96875);
#118=CIRCLE('',#164,3.571875);
#119=CIRCLE('',#166,3.96875);
#120=CURVE_STYLE('',#125,POSITIVE_LENGTH_MEASURE(0.18),#124);
#121=CURVE_STYLE('',#126,POSITIVE_LENGTH_MEASURE(0.18),#148);
#122=CURVE_STYLE('',#127,POSITIVE_LENGTH_MEASURE(0.18),#148);
#123=CURVE_STYLE('',#128,POSITIVE_LENGTH_MEASURE(0.18),#148);
#124=DRAUGHTING_PRE_DEFINED_COLOUR('blue');
#125=DRAUGHTING_PRE_DEFINED_CURVE_FONT('continuous');
#126=DRAUGHTING_PRE_DEFINED_CURVE_FONT('continuous');
#127=DRAUGHTING_PRE_DEFINED_CURVE_FONT('continuous');
#128=DRAUGHTING_PRE_DEFINED_CURVE_FONT('continuous');
#129=B_SPLINE_CURVE_WITH_KNOTS('CUTTING PART LINE',3,(#207,#208,#209,#210,
#211,#212,#213,#214,#215,#216,#217,#218,#219,#220,#221,#222,#223,#224,#225,
#226,#227,#228,#229,#230,#231,#232,#233,#234,#235),.UNSPECIFIED.,.T.,.F.,
(4,3,1,1,1,1,1,1,1,1,1,1,1,1,1,1,1,1,1,1,1,3,4),(0.,0.4358336478,0.44385681881875,
0.4518799898375,0.45990316085625,0.467926331875,0.47594950289375,0.4839726739125,
0.49199584493125,0.50001901595,0.50804218696875,0.5160653579875,0.52408852900625,
0.532111700025,0.54013487104375,0.5481580420625,0.55618121308125,0.560192798590625,
0.5642043841,0.566417557280625,0.74125823855,0.918312093,1.),
 .UNSPECIFIED.);
#130=PRESENTATION_LAYER_ASSIGNMENT('1','Layer 1',(#206,#129,#152,#153,#154,
#48,#49));
#131=STYLED_ITEM('',(#138),#206);
#132=STYLED_ITEM('',(#139),#129);
#133=STYLED_ITEM('',(#140),#152);
#134=STYLED_ITEM('',(#141),#153);
#135=STYLED_ITEM('',(#142),#154);
#136=STYLED_ITEM('',(#143),#48);
#137=STYLED_ITEM('',(#144),#49);
#138=PRESENTATION_STYLE_ASSIGNMENT((#145));
#139=PRESENTATION_STYLE_ASSIGNMENT((#120));
#140=PRESENTATION_STYLE_ASSIGNMENT((#121));
#141=PRESENTATION_STYLE_ASSIGNMENT((#122));
#142=PRESENTATION_STYLE_ASSIGNMENT((#123));
#143=PRESENTATION_STYLE_ASSIGNMENT((#38));
#144=PRESENTATION_STYLE_ASSIGNMENT((#39));
#145=POINT_STYLE('',#146,POSITIVE_LENGTH_MEASURE(3.),#147);
#146=PRE_DEFINED_POINT_MARKER_SYMBOL('plus');
#147=COLOUR_RGB('Medium Royal',0.301960784313725,0.427450980392157,0.701960784313725);
#148=COLOUR_RGB('Pale Maroon',0.811764705882353,0.603921568627451,0.611764705882353);
#149=COLOUR_RGB('light gray',0.8,0.8,0.8);
#150=COLOUR_RGB('medium gray',0.490196078431373,0.490196078431373,0.490196078431373);
#151=AXIS2_PLACEMENT_3D('',#205,#169,#170);
#152=AXIS2_PLACEMENT_3D('MCS',#236,#171,#172);
#153=AXIS2_PLACEMENT_3D('CIP',#237,#173,#174);
#154=AXIS2_PLACEMENT_3D('PCS',#238,#175,#176);
#155=AXIS2_PLACEMENT_3D('',#239,#177,#178);
#156=AXIS2_PLACEMENT_3D('',#241,#179,#180);
#157=AXIS2_PLACEMENT_3D('',#242,#181,#182);
#158=AXIS2_PLACEMENT_3D('',#244,#183,#184);
#159=AXIS2_PLACEMENT_3D('',#245,#185,#186);
#160=AXIS2_PLACEMENT_3D('',#246,#187,#188);
#161=AXIS2_PLACEMENT_3D('',#248,#189,#190);
#162=AXIS2_PLACEMENT_3D('',#250,#191,#192);
#163=AXIS2_PLACEMENT_3D('',#251,#193,#194);
#164=AXIS2_PLACEMENT_3D('',#252,#195,#196);
#165=AXIS2_PLACEMENT_3D('',#254,#197,#198);
#166=AXIS2_PLACEMENT_3D('',#255,#199,#200);
#167=AXIS2_PLACEMENT_3D('',#257,#201,#202);
#168=AXIS2_PLACEMENT_3D('',#258,#203,#204);
#169=DIRECTION('',(0.,0.,1.));
#170=DIRECTION('',(1.,0.,0.));
#171=DIRECTION('',(0.,0.,1.));
#172=DIRECTION('',(1.,0.,0.));
#173=DIRECTION('',(0.,0.,1.));
#174=DIRECTION('',(1.,0.,0.));
#175=DIRECTION('',(0.,0.,1.));
#176=DIRECTION('',(1.,0.,0.));
#177=DIRECTION('',(0.,0.,-1.));
#178=DIRECTION('',(-1.,0.,0.));
#179=DIRECTION('',(-6.12323399573677E-17,0.,-0.999999999999999));
#180=DIRECTION('',(-1.,0.,0.));
#181=DIRECTION('',(0.,0.,1.));
#182=DIRECTION('',(-1.,0.,0.));
#183=DIRECTION('',(0.,0.,-1.));
#184=DIRECTION('',(-1.,0.,2.08594923159466E-14));
#185=DIRECTION('',(0.,0.,-1.));
#186=DIRECTION('',(-1.,0.,0.));
#187=DIRECTION('',(0.,0.,-1.));
#188=DIRECTION('',(-1.,0.,0.));
#189=DIRECTION('',(0.,0.,-1.));
#190=DIRECTION('',(-1.,0.,0.));
#191=DIRECTION('',(0.,0.,-1.));
#192=DIRECTION('',(-1.,0.,-1.03671960465511E-16));
#193=DIRECTION('',(0.,0.,1.));
#194=DIRECTION('',(1.,0.,0.));
#195=DIRECTION('',(0.,0.,-1.));
#196=DIRECTION('',(-1.,0.,0.));
#197=DIRECTION('',(0.,0.,-1.));
#198=DIRECTION('',(-1.,0.,0.));
#199=DIRECTION('',(0.,0.,-1.));
#200=DIRECTION('',(-1.,0.,0.));
#201=DIRECTION('',(0.,0.,-1.));
#202=DIRECTION('',(-1.,0.,0.));
#203=DIRECTION('',(0.,0.,-1.));
#204=DIRECTION('',(-1.,0.,0.));
#205=CARTESIAN_POINT('',(0.,0.,0.));
#206=CARTESIAN_POINT('CRP',(-3.571875,0.,-63.5));
#207=CARTESIAN_POINT('',(0.,0.,-44.45));
#208=CARTESIAN_POINT('',(0.,0.,-50.8));
#209=CARTESIAN_POINT('',(3.64523773808708E-17,0.,-57.15));
#210=CARTESIAN_POINT('',(1.09357132142612E-16,0.,-63.5));
#211=CARTESIAN_POINT('',(-0.116895829888888,0.,-63.5));
#212=CARTESIAN_POINT('',(-0.35068730784931,0.,-63.4885139131886));
#213=CARTESIAN_POINT('',(-0.697996931978681,0.,-63.436992502122));
#214=CARTESIAN_POINT('',(-1.03858371429088,0.,-63.351675009775));
#215=CARTESIAN_POINT('',(-1.36916726229819,0.,-63.2333832156831));
#216=CARTESIAN_POINT('',(-1.68656351042023,0.,-63.0832564277453));
#217=CARTESIAN_POINT('',(-1.98771543503222,0.,-62.9027406413531));
#218=CARTESIAN_POINT('',(-2.26972243803894,0.,-62.6935744852296));
#219=CARTESIAN_POINT('',(-2.52986835817938,0.,-62.4577725949919));
#220=CARTESIAN_POINT('',(-2.76564754505907,0.,-62.1976060987441));
#221=CARTESIAN_POINT('',(-2.97478909084851,0.,-61.9155808434011));
#222=CARTESIAN_POINT('',(-3.15527859608521,0.,-61.6144131669932));
#223=CARTESIAN_POINT('',(-3.30537768545224,0.,-61.2970038189653));
#224=CARTESIAN_POINT('',(-3.42364063027858,0.,-60.9664099492292));
#225=CARTESIAN_POINT('',(-3.50892840053551,0.,-60.6258157226604));
#226=CARTESIAN_POINT('',(-3.55183765251342,0.,-60.3363872900469));
#227=CARTESIAN_POINT('',(-3.5690187663409,0.,-60.1031572442921));
#228=CARTESIAN_POINT('',(-3.57227332430621,0.,-59.9540157371949));
#229=CARTESIAN_POINT('',(-3.57164705678369,0.,-57.3159323015554));
#230=CARTESIAN_POINT('',(-3.5711968254442,0.,-52.1566612031873));
#231=CARTESIAN_POINT('',(-3.57074940805058,0.,-47.0296355491841));
#232=CARTESIAN_POINT('',(-3.57052429238084,0.,-44.45));
#233=CARTESIAN_POINT('',(-2.38034952825389,0.,-44.45));
#234=CARTESIAN_POINT('',(-1.19017476412695,0.,-44.45));
#235=CARTESIAN_POINT('',(0.,0.,-44.45));
#236=CARTESIAN_POINT('',(0.,0.,-36.));
#237=CARTESIAN_POINT('',(0.,0.,-63.5));
#238=CARTESIAN_POINT('',(0.,0.,0.));
#239=CARTESIAN_POINT('',(0.,0.,-59.9278132951043));
#240=CARTESIAN_POINT('',(-3.57187498639931,0.,-59.9278132951043));
#241=CARTESIAN_POINT('',(0.,0.,-59.928125));
#242=CARTESIAN_POINT('',(0.,0.,-44.45));
#243=CARTESIAN_POINT('',(-3.57052429238083,0.,-44.45));
#244=CARTESIAN_POINT('',(0.,0.,-59.9278132951043));
#245=CARTESIAN_POINT('',(0.,0.,-44.45));
#246=CARTESIAN_POINT('',(0.,0.,0.));
#247=CARTESIAN_POINT('',(-3.66395,0.,0.));
#248=CARTESIAN_POINT('',(0.,0.,-0.304800000000001));
#249=CARTESIAN_POINT('',(-3.96875,0.,-0.304800000000001));
#250=CARTESIAN_POINT('',(0.,0.,-0.304800000000001));
#251=CARTESIAN_POINT('',(3.66395,0.,3.31837406576684E-17));
#252=CARTESIAN_POINT('',(0.,0.,-44.4499998821285));
#253=CARTESIAN_POINT('',(-3.571875,0.,-44.4499998821285));
#254=CARTESIAN_POINT('',(3.57052429238083,0.,-44.4499999410643));
#255=CARTESIAN_POINT('',(0.,0.,-41.2999023452637));
#256=CARTESIAN_POINT('',(-3.96875,0.,-41.2999023452637));
#257=CARTESIAN_POINT('',(0.,0.,-44.45));
#258=CARTESIAN_POINT('',(0.,0.,-36.));
#259=MECHANICAL_DESIGN_GEOMETRIC_PRESENTATION_REPRESENTATION('',(#131,#132,
#133,#134,#135,#136,#137),#260);
#260=(
GEOMETRIC_REPRESENTATION_CONTEXT(3)
GLOBAL_UNCERTAINTY_ASSIGNED_CONTEXT((#261))
GLOBAL_UNIT_ASSIGNED_CONTEXT((#267,#263,#262))
REPRESENTATION_CONTEXT('C5321-.281F3B','TOP_LEVEL_ASSEMBLY_PART')
);
#261=UNCERTAINTY_MEASURE_WITH_UNIT(LENGTH_MEASURE(2.E-5),#267,
'DISTANCE_ACCURACY_VALUE','Maximum Tolerance applied to model');
#262=(
NAMED_UNIT(*)
SI_UNIT($,.STERADIAN.)
SOLID_ANGLE_UNIT()
);
#263=(
CONVERSION_BASED_UNIT('DEGREE',#265)
NAMED_UNIT(#264)
PLANE_ANGLE_UNIT()
);
#264=DIMENSIONAL_EXPONENTS(0.,0.,0.,0.,0.,0.,0.);
#265=PLANE_ANGLE_MEASURE_WITH_UNIT(PLANE_ANGLE_MEASURE(0.0174532925),#266);
#266=(
NAMED_UNIT(*)
PLANE_ANGLE_UNIT()
SI_UNIT($,.RADIAN.)
);
#267=(
LENGTH_UNIT()
NAMED_UNIT(*)
SI_UNIT(.MILLI.,.METRE.)
);
ENDSEC;
END-ISO-10303-21;
