ISO-10303-21;
HEADER;
/* Generated by software containing ST-Developer
 * from STEP Tools, Inc. (www.steptools.com) 
 */
/* OPTION: using custom schema-name function */

FILE_DESCRIPTION(
/* description */ (''),
/* implementation_level */ '2;1');

FILE_NAME(
/* name */ 'C5321-020F2B.0Z2_Basic.stp',
/* time_stamp */ '2024-03-06T11:59:34+05:00',
/* author */ (''),
/* organization */ (''),
/* preprocessor_version */ 'ST-DEVELOPER v16.7',
/* originating_system */ 'SIEMENS PLM Software NX 12.0',
/* authorisation */ '');

FILE_SCHEMA (('AUTOMOTIVE_DESIGN { 1 0 10303 214 3 1 1 1 }'));
ENDSEC;

DATA;
#10=CONSTRUCTIVE_GEOMETRY_REPRESENTATION_RELATIONSHIP(
'supplemental geometry','',#34,#11);
#11=CONSTRUCTIVE_GEOMETRY_REPRESENTATION('supplemental geometry',(#152,
#153,#154),#260);
#12=GEOMETRICALLY_BOUNDED_WIREFRAME_SHAPE_REPRESENTATION(
'inpu6610C15Cwxuc-None',(#35),#260);
#13=PROPERTY_DEFINITION_REPRESENTATION(#17,#15);
#14=PROPERTY_DEFINITION_REPRESENTATION(#18,#16);
#15=REPRESENTATION('',(#19),#260);
#16=REPRESENTATION('',(#20),#260);
#17=PROPERTY_DEFINITION('pmi validation property','',#25);
#18=PROPERTY_DEFINITION('pmi validation property','',#25);
#19=VALUE_REPRESENTATION_ITEM('number of annotations',COUNT_MEASURE(0.));
#20=VALUE_REPRESENTATION_ITEM('number of views',COUNT_MEASURE(0.));
#21=SHAPE_REPRESENTATION_RELATIONSHIP('None',
'relationship between inpu6610C15Cwxuc-None and inpu6610C15Cwxuc-None',
#34,#23);
#22=SHAPE_REPRESENTATION_RELATIONSHIP('None',
'relationship between inpu6610C15Cwxuc-None and inpu6610C15Cwxuc-None',
#34,#12);
#23=ADVANCED_BREP_SHAPE_REPRESENTATION('inpu6610C15Cwxuc-None',(#47,#48),
#260);
#24=SHAPE_DEFINITION_REPRESENTATION(#25,#34);
#25=PRODUCT_DEFINITION_SHAPE('','',#26);
#26=PRODUCT_DEFINITION(' ','',#28,#27);
#27=PRODUCT_DEFINITION_CONTEXT('part definition',#33,'design');
#28=PRODUCT_DEFINITION_FORMATION_WITH_SPECIFIED_SOURCE(' ',' ',#30,
 .NOT_KNOWN.);
#29=PRODUCT_RELATED_PRODUCT_CATEGORY('part','',(#30));
#30=PRODUCT('inpu6610C15Cwxuc','inpu6610C15Cwxuc',' ',(#31));
#31=PRODUCT_CONTEXT(' ',#33,'mechanical');
#32=APPLICATION_PROTOCOL_DEFINITION('international standard',
'automotive_design',2010,#33);
#33=APPLICATION_CONTEXT(
'core data for automotive mechanical design processes');
#34=SHAPE_REPRESENTATION('inpu6610C15Cwxuc-None',(#151),#260);
#35=GEOMETRIC_CURVE_SET('None',(#206,#129));
#36=SPHERICAL_SURFACE('',#165,1.);
#37=SURFACE_STYLE_USAGE(.BOTH.,#39);
#38=SURFACE_STYLE_USAGE(.BOTH.,#40);
#39=SURFACE_SIDE_STYLE('',(#41));
#40=SURFACE_SIDE_STYLE('',(#42));
#41=SURFACE_STYLE_FILL_AREA(#43);
#42=SURFACE_STYLE_FILL_AREA(#44);
#43=FILL_AREA_STYLE('',(#45));
#44=FILL_AREA_STYLE('',(#46));
#45=FILL_AREA_STYLE_COLOUR('',#149);
#46=FILL_AREA_STYLE_COLOUR('',#150);
#47=MANIFOLD_SOLID_BREP('NOCUT',#49);
#48=MANIFOLD_SOLID_BREP('CUT',#50);
#49=CLOSED_SHELL('',(#60,#61,#62,#63,#64));
#50=CLOSED_SHELL('',(#65,#66,#67));
#51=CYLINDRICAL_SURFACE('',#163,1.5);
#52=TOROIDAL_SURFACE('',#162,6.01499999999999,5.);
#53=PLANE('',#158);
#54=PLANE('',#160);
#55=PLANE('',#168);
#56=FACE_OUTER_BOUND('',#80,.T.);
#57=FACE_OUTER_BOUND('',#81,.T.);
#58=FACE_OUTER_BOUND('',#86,.T.);
#59=FACE_OUTER_BOUND('',#89,.T.);
#60=ADVANCED_FACE('',(#70,#71),#68,.T.);
#61=ADVANCED_FACE('',(#56),#53,.T.);
#62=ADVANCED_FACE('',(#57),#54,.T.);
#63=ADVANCED_FACE('',(#72,#73),#52,.F.);
#64=ADVANCED_FACE('',(#74,#75),#51,.T.);
#65=ADVANCED_FACE('',(#58),#36,.T.);
#66=ADVANCED_FACE('',(#76,#77),#69,.T.);
#67=ADVANCED_FACE('',(#59),#55,.F.);
#68=CONICAL_SURFACE('',#157,1.5,44.9999999999999);
#69=CONICAL_SURFACE('',#167,0.999999996192282,0.00500000000005575);
#70=FACE_BOUND('',#78,.T.);
#71=FACE_BOUND('',#79,.T.);
#72=FACE_BOUND('',#82,.T.);
#73=FACE_BOUND('',#83,.T.);
#74=FACE_BOUND('',#84,.T.);
#75=FACE_BOUND('',#85,.T.);
#76=FACE_BOUND('',#87,.T.);
#77=FACE_BOUND('',#88,.T.);
#78=EDGE_LOOP('',(#90));
#79=EDGE_LOOP('',(#91));
#80=EDGE_LOOP('',(#92));
#81=EDGE_LOOP('',(#93));
#82=EDGE_LOOP('',(#94));
#83=EDGE_LOOP('',(#95));
#84=EDGE_LOOP('',(#96));
#85=EDGE_LOOP('',(#97));
#86=EDGE_LOOP('',(#98));
#87=EDGE_LOOP('',(#99));
#88=EDGE_LOOP('',(#100));
#89=EDGE_LOOP('',(#101));
#90=ORIENTED_EDGE('',*,*,#108,.T.);
#91=ORIENTED_EDGE('',*,*,#109,.F.);
#92=ORIENTED_EDGE('',*,*,#108,.F.);
#93=ORIENTED_EDGE('',*,*,#110,.T.);
#94=ORIENTED_EDGE('',*,*,#111,.T.);
#95=ORIENTED_EDGE('',*,*,#110,.F.);
#96=ORIENTED_EDGE('',*,*,#109,.T.);
#97=ORIENTED_EDGE('',*,*,#111,.F.);
#98=ORIENTED_EDGE('',*,*,#112,.T.);
#99=ORIENTED_EDGE('',*,*,#113,.F.);
#100=ORIENTED_EDGE('',*,*,#112,.F.);
#101=ORIENTED_EDGE('',*,*,#113,.T.);
#102=VERTEX_POINT('',#240);
#103=VERTEX_POINT('',#242);
#104=VERTEX_POINT('',#246);
#105=VERTEX_POINT('',#249);
#106=VERTEX_POINT('',#253);
#107=VERTEX_POINT('',#256);
#108=EDGE_CURVE('',#102,#102,#114,.T.);
#109=EDGE_CURVE('',#103,#103,#115,.T.);
#110=EDGE_CURVE('',#104,#104,#116,.T.);
#111=EDGE_CURVE('',#105,#105,#117,.T.);
#112=EDGE_CURVE('',#106,#106,#118,.T.);
#113=EDGE_CURVE('',#107,#107,#119,.T.);
#114=CIRCLE('',#155,1.2);
#115=CIRCLE('',#156,1.5);
#116=CIRCLE('',#159,1.01499999999999);
#117=CIRCLE('',#161,1.5);
#118=CIRCLE('',#164,0.999999996192282);
#119=CIRCLE('',#166,0.999738204419251);
#120=CURVE_STYLE('',#125,POSITIVE_LENGTH_MEASURE(0.18),#124);
#121=CURVE_STYLE('',#126,POSITIVE_LENGTH_MEASURE(0.18),#148);
#122=CURVE_STYLE('',#127,POSITIVE_LENGTH_MEASURE(0.18),#148);
#123=CURVE_STYLE('',#128,POSITIVE_LENGTH_MEASURE(0.18),#148);
#124=DRAUGHTING_PRE_DEFINED_COLOUR('blue');
#125=DRAUGHTING_PRE_DEFINED_CURVE_FONT('continuous');
#126=DRAUGHTING_PRE_DEFINED_CURVE_FONT('continuous');
#127=DRAUGHTING_PRE_DEFINED_CURVE_FONT('continuous');
#128=DRAUGHTING_PRE_DEFINED_CURVE_FONT('continuous');
#129=B_SPLINE_CURVE_WITH_KNOTS('CUTTING PART LINE',3,(#207,#208,#209,#210,
#211,#212,#213,#214,#215,#216,#217,#218,#219,#220,#221,#222,#223,#224,#225,
#226,#227,#228,#229,#230,#231,#232,#233,#234,#235),.UNSPECIFIED.,.T.,.F.,
(4,3,1,1,1,1,1,1,1,1,1,1,1,1,1,1,1,1,1,1,1,3,4),(0.,0.4179494867,0.42820808031875,
0.4384666739375,0.44872526755625,0.458983861175,0.46924245479375,0.4795010484125,
0.48975964203125,0.50001823565,0.51027682926875,0.5205354228875,0.53079401650625,
0.541052610125,0.55131120374375,0.5615697973625,0.57182839098125,0.576957687790625,
0.5820869846,0.58502560645625,0.7388134836,0.8955399826,1.),
 .UNSPECIFIED.);
#130=PRESENTATION_LAYER_ASSIGNMENT('1','Layer 1',(#206,#129,#152,#153,#154,
#47,#48));
#131=STYLED_ITEM('',(#138),#206);
#132=STYLED_ITEM('',(#139),#129);
#133=STYLED_ITEM('',(#140),#152);
#134=STYLED_ITEM('',(#141),#153);
#135=STYLED_ITEM('',(#142),#154);
#136=STYLED_ITEM('',(#143),#47);
#137=STYLED_ITEM('',(#144),#48);
#138=PRESENTATION_STYLE_ASSIGNMENT((#145));
#139=PRESENTATION_STYLE_ASSIGNMENT((#120));
#140=PRESENTATION_STYLE_ASSIGNMENT((#121));
#141=PRESENTATION_STYLE_ASSIGNMENT((#122));
#142=PRESENTATION_STYLE_ASSIGNMENT((#123));
#143=PRESENTATION_STYLE_ASSIGNMENT((#37));
#144=PRESENTATION_STYLE_ASSIGNMENT((#38));
#145=POINT_STYLE('',#146,POSITIVE_LENGTH_MEASURE(3.),#147);
#146=PRE_DEFINED_POINT_MARKER_SYMBOL('plus');
#147=COLOUR_RGB('Medium Royal',0.2,0.4,0.8);
#148=COLOUR_RGB('Pale Maroon',0.811749446860456,0.603921568627451,0.611749446860456);
#149=COLOUR_RGB('Medium Gray',0.490196078431373,0.490196078431373,0.490196078431373);
#150=COLOUR_RGB('Light Gray',0.8,0.8,0.8);
#151=AXIS2_PLACEMENT_3D('',#205,#169,#170);
#152=AXIS2_PLACEMENT_3D('MCS',#236,#171,#172);
#153=AXIS2_PLACEMENT_3D('CIP',#237,#173,#174);
#154=AXIS2_PLACEMENT_3D('PCS',#238,#175,#176);
#155=AXIS2_PLACEMENT_3D('',#239,#177,#178);
#156=AXIS2_PLACEMENT_3D('',#241,#179,#180);
#157=AXIS2_PLACEMENT_3D('',#243,#181,#182);
#158=AXIS2_PLACEMENT_3D('',#244,#183,#184);
#159=AXIS2_PLACEMENT_3D('',#245,#185,#186);
#160=AXIS2_PLACEMENT_3D('',#247,#187,#188);
#161=AXIS2_PLACEMENT_3D('',#248,#189,#190);
#162=AXIS2_PLACEMENT_3D('',#250,#191,#192);
#163=AXIS2_PLACEMENT_3D('',#251,#193,#194);
#164=AXIS2_PLACEMENT_3D('',#252,#195,#196);
#165=AXIS2_PLACEMENT_3D('',#254,#197,#198);
#166=AXIS2_PLACEMENT_3D('',#255,#199,#200);
#167=AXIS2_PLACEMENT_3D('',#257,#201,#202);
#168=AXIS2_PLACEMENT_3D('',#258,#203,#204);
#169=DIRECTION('',(0.,0.,1.));
#170=DIRECTION('',(1.,0.,0.));
#171=DIRECTION('',(0.,0.,1.));
#172=DIRECTION('',(1.,0.,0.));
#173=DIRECTION('',(0.,0.,1.));
#174=DIRECTION('',(1.,0.,0.));
#175=DIRECTION('',(0.,0.,1.));
#176=DIRECTION('',(1.,0.,0.));
#177=DIRECTION('',(0.,0.,-1.));
#178=DIRECTION('',(-1.,0.,0.));
#179=DIRECTION('',(0.,0.,-1.));
#180=DIRECTION('',(-1.,0.,0.));
#181=DIRECTION('',(0.,0.,-1.));
#182=DIRECTION('',(-1.,0.,3.11782551848054E-17));
#183=DIRECTION('',(0.,0.,1.));
#184=DIRECTION('',(1.,0.,0.));
#185=DIRECTION('',(0.,0.,-1.));
#186=DIRECTION('',(-1.,0.,0.));
#187=DIRECTION('',(0.,0.,-1.));
#188=DIRECTION('',(-1.,0.,0.));
#189=DIRECTION('',(0.,0.,-1.));
#190=DIRECTION('',(-1.,0.,0.));
#191=DIRECTION('',(0.,0.,-1.));
#192=DIRECTION('',(-1.,0.,0.));
#193=DIRECTION('',(0.,0.,-1.));
#194=DIRECTION('',(-1.,0.,0.));
#195=DIRECTION('',(0.,0.,-1.));
#196=DIRECTION('',(-1.,0.,0.));
#197=DIRECTION('',(-6.12323399573677E-17,0.,-1.));
#198=DIRECTION('',(-1.,0.,0.));
#199=DIRECTION('',(0.,0.,1.));
#200=DIRECTION('',(-1.,0.,0.));
#201=DIRECTION('',(0.,0.,-1.));
#202=DIRECTION('',(-1.,0.,7.02015888654962E-14));
#203=DIRECTION('',(0.,0.,-1.));
#204=DIRECTION('',(-1.,0.,0.));
#205=CARTESIAN_POINT('',(0.,0.,0.));
#206=CARTESIAN_POINT('CRP',(-1.,0.,-38.));
#207=CARTESIAN_POINT('',(0.,0.,-34.));
#208=CARTESIAN_POINT('',(0.,0.,-35.3333333333333));
#209=CARTESIAN_POINT('',(-1.37824346623792E-16,0.,-36.6666666666667));
#210=CARTESIAN_POINT('',(-4.13473039871378E-16,0.,-38.));
#211=CARTESIAN_POINT('',(-0.0327267415261981,0.,-38.));
#212=CARTESIAN_POINT('',(-0.0981801736760972,0.,-37.9967842976556));
#213=CARTESIAN_POINT('',(-0.195414714114766,0.,-37.982360105581));
#214=CARTESIAN_POINT('',(-0.29076709411468,0.,-37.9584741934628));
#215=CARTESIAN_POINT('',(-0.38331891857867,0.,-37.9253566308124));
#216=CARTESIAN_POINT('',(-0.47217876057259,0.,-37.8833263839707));
#217=CARTESIAN_POINT('',(-0.556490760459203,0.,-37.8327882810482));
#218=CARTESIAN_POINT('',(-0.6354428523134,0.,-37.7742290772118));
#219=CARTESIAN_POINT('',(-0.708274605899963,0.,-37.7082128000623));
#220=CARTESIAN_POINT('',(-0.774284527068487,0.,-37.6353752857186));
#221=CARTESIAN_POINT('',(-0.832836840828018,0.,-37.5564180838966));
#222=CARTESIAN_POINT('',(-0.883367585955612,0.,-37.4721016740488));
#223=CARTESIAN_POINT('',(-0.925390078166854,0.,-37.3832381645397));
#224=CARTESIAN_POINT('',(-0.958499564032498,0.,-37.2906834503529));
#225=CARTESIAN_POINT('',(-0.982377155005564,0.,-37.1953289862216));
#226=CARTESIAN_POINT('',(-0.994390243923266,0.,-37.1142991538189));
#227=CARTESIAN_POINT('',(-0.999200354531133,0.,-37.0490029030389));
#228=CARTESIAN_POINT('',(-1.00011575017748,0.,-37.0069013687265));
#229=CARTESIAN_POINT('',(-0.999955546130819,0.,-36.4905525506556));
#230=CARTESIAN_POINT('',(-0.999868282206476,0.,-35.4905816394765));
#231=CARTESIAN_POINT('',(-0.999781836381424,0.,-34.4999854555896));
#232=CARTESIAN_POINT('',(-0.999738204419253,0.,-34.));
#233=CARTESIAN_POINT('',(-0.666492136279502,0.,-34.));
#234=CARTESIAN_POINT('',(-0.333246068139751,0.,-34.));
#235=CARTESIAN_POINT('',(0.,0.,-34.));
#236=CARTESIAN_POINT('',(0.,0.,-19.));
#237=CARTESIAN_POINT('',(0.,0.,-38.));
#238=CARTESIAN_POINT('',(0.,0.,0.));
#239=CARTESIAN_POINT('',(0.,0.,0.));
#240=CARTESIAN_POINT('',(-1.2,0.,0.));
#241=CARTESIAN_POINT('',(0.,0.,-0.299999999999998));
#242=CARTESIAN_POINT('',(-1.5,0.,-0.299999999999998));
#243=CARTESIAN_POINT('',(0.,0.,-0.299999999999998));
#244=CARTESIAN_POINT('',(1.2,0.,8.86948918889262E-17));
#245=CARTESIAN_POINT('',(0.,0.,-33.9999986681571));
#246=CARTESIAN_POINT('',(-1.01499999999999,0.,-33.9999986681571));
#247=CARTESIAN_POINT('',(0.999738204419251,0.,-33.9999993340785));
#248=CARTESIAN_POINT('',(0.,0.,-31.8517972628264));
#249=CARTESIAN_POINT('',(-1.5,0.,-31.8517972628264));
#250=CARTESIAN_POINT('',(0.,0.,-34.));
#251=CARTESIAN_POINT('',(0.,0.,-19.));
#252=CARTESIAN_POINT('',(0.,0.,-36.9999127335375));
#253=CARTESIAN_POINT('',(-0.999999996192282,0.,-36.9999127335375));
#254=CARTESIAN_POINT('',(0.,0.,-37.));
#255=CARTESIAN_POINT('',(0.,0.,-34.));
#256=CARTESIAN_POINT('',(-0.999738204419251,0.,-34.));
#257=CARTESIAN_POINT('',(0.,0.,-36.9999127335375));
#258=CARTESIAN_POINT('',(0.,0.,-34.));
#259=MECHANICAL_DESIGN_GEOMETRIC_PRESENTATION_REPRESENTATION('',(#131,#132,
#133,#134,#135,#136,#137),#260);
#260=(
GEOMETRIC_REPRESENTATION_CONTEXT(3)
GLOBAL_UNCERTAINTY_ASSIGNED_CONTEXT((#261))
GLOBAL_UNIT_ASSIGNED_CONTEXT((#267,#263,#262))
REPRESENTATION_CONTEXT('C5321-020F2B','TOP_LEVEL_ASSEMBLY_PART')
);
#261=UNCERTAINTY_MEASURE_WITH_UNIT(LENGTH_MEASURE(2.E-5),#267,
'DISTANCE_ACCURACY_VALUE','Maximum Tolerance applied to model');
#262=(
NAMED_UNIT(*)
SI_UNIT($,.STERADIAN.)
SOLID_ANGLE_UNIT()
);
#263=(
CONVERSION_BASED_UNIT('DEGREE',#265)
NAMED_UNIT(#264)
PLANE_ANGLE_UNIT()
);
#264=DIMENSIONAL_EXPONENTS(0.,0.,0.,0.,0.,0.,0.);
#265=PLANE_ANGLE_MEASURE_WITH_UNIT(PLANE_ANGLE_MEASURE(0.0174532925),#266);
#266=(
NAMED_UNIT(*)
PLANE_ANGLE_UNIT()
SI_UNIT($,.RADIAN.)
);
#267=(
LENGTH_UNIT()
NAMED_UNIT(*)
SI_UNIT(.MILLI.,.METRE.)
);
ENDSEC;
END-ISO-10303-21;
