ISO-10303-21;
HEADER;
/* Generated by software containing ST-Developer
 * from STEP Tools, Inc. (www.steptools.com) 
 */
/* OPTION: using custom schema-name function */

FILE_DESCRIPTION(
/* description */ (''),
/* implementation_level */ '2;1');

FILE_NAME(
/* name */ 'C5341-.063XF2B.0DZ4_Basic.stp',
/* time_stamp */ '2024-07-19T08:40:43+05:00',
/* author */ (''),
/* organization */ (''),
/* preprocessor_version */ 'ST-DEVELOPER v18.102',
/* originating_system */ 'SIEMENS PLM Software NX2206.8101',
/* authorisation */ '');

FILE_SCHEMA (('AUTOMOTIVE_DESIGN { 1 0 10303 214 3 1 1 1 }'));
ENDSEC;

DATA;
#10=CONSTRUCTIVE_GEOMETRY_REPRESENTATION_RELATIONSHIP(
'supplemental geometry','',#34,#11);
#11=CONSTRUCTIVE_GEOMETRY_REPRESENTATION('supplemental geometry',(#197,
#198,#199),#320);
#12=GEOMETRICALLY_BOUNDED_WIREFRAME_SHAPE_REPRESENTATION(
'inpu33B0C0DDup4p-None',(#35),#320);
#13=PROPERTY_DEFINITION_REPRESENTATION(#17,#15);
#14=PROPERTY_DEFINITION_REPRESENTATION(#18,#16);
#15=REPRESENTATION('',(#19),#320);
#16=REPRESENTATION('',(#20),#320);
#17=PROPERTY_DEFINITION('pmi validation property','',#25);
#18=PROPERTY_DEFINITION('pmi validation property','',#25);
#19=VALUE_REPRESENTATION_ITEM('number of annotations',COUNT_MEASURE(0.));
#20=VALUE_REPRESENTATION_ITEM('number of views',COUNT_MEASURE(0.));
#21=SHAPE_REPRESENTATION_RELATIONSHIP('None',
'relationship between inpu33B0C0DDup4p-None and inpu33B0C0DDup4p-None',
#34,#23);
#22=SHAPE_REPRESENTATION_RELATIONSHIP('None',
'relationship between inpu33B0C0DDup4p-None and inpu33B0C0DDup4p-None',
#34,#12);
#23=ADVANCED_BREP_SHAPE_REPRESENTATION('inpu33B0C0DDup4p-None',(#53,#54,
#55),#320);
#24=SHAPE_DEFINITION_REPRESENTATION(#25,#34);
#25=PRODUCT_DEFINITION_SHAPE('','',#26);
#26=PRODUCT_DEFINITION(' ','',#28,#27);
#27=PRODUCT_DEFINITION_CONTEXT('part definition',#33,'design');
#28=PRODUCT_DEFINITION_FORMATION_WITH_SPECIFIED_SOURCE(' ',' ',#30,
 .NOT_KNOWN.);
#29=PRODUCT_RELATED_PRODUCT_CATEGORY('part','',(#30));
#30=PRODUCT('inpu33B0C0DDup4p','inpu33B0C0DDup4p',' ',(#31));
#31=PRODUCT_CONTEXT(' ',#33,'mechanical');
#32=APPLICATION_PROTOCOL_DEFINITION('international standard',
'automotive_design',2010,#33);
#33=APPLICATION_CONTEXT(
'core data for automotive mechanical design processes');
#34=SHAPE_REPRESENTATION('inpu33B0C0DDup4p-None',(#196),#320);
#35=GEOMETRIC_CURVE_SET('None',(#272,#171));
#36=SPHERICAL_SURFACE('',#212,0.793749999999946);
#37=SPHERICAL_SURFACE('',#217,0.793749999999999);
#38=SURFACE_STYLE_USAGE(.BOTH.,#41);
#39=SURFACE_STYLE_USAGE(.BOTH.,#42);
#40=SURFACE_STYLE_USAGE(.BOTH.,#43);
#41=SURFACE_SIDE_STYLE('',(#44));
#42=SURFACE_SIDE_STYLE('',(#45));
#43=SURFACE_SIDE_STYLE('',(#46));
#44=SURFACE_STYLE_FILL_AREA(#47);
#45=SURFACE_STYLE_FILL_AREA(#48);
#46=SURFACE_STYLE_FILL_AREA(#49);
#47=FILL_AREA_STYLE('',(#50));
#48=FILL_AREA_STYLE('',(#51));
#49=FILL_AREA_STYLE('',(#52));
#50=FILL_AREA_STYLE_COLOUR('',#194);
#51=FILL_AREA_STYLE_COLOUR('',#195);
#52=FILL_AREA_STYLE_COLOUR('',#195);
#53=MANIFOLD_SOLID_BREP('NOCUT',#56);
#54=MANIFOLD_SOLID_BREP('CUT',#57);
#55=MANIFOLD_SOLID_BREP('CUT',#58);
#56=CLOSED_SHELL('',(#76,#77,#78,#79,#80,#81));
#57=CLOSED_SHELL('',(#82,#83,#84));
#58=CLOSED_SHELL('',(#85,#86,#87));
#59=CYLINDRICAL_SURFACE('',#205,1.5875);
#60=CONICAL_SURFACE('',#203,0.793750000000003,16.0000000994508);
#61=CONICAL_SURFACE('',#207,1.5875,16.);
#62=CONICAL_SURFACE('',#214,0.793749996977559,0.00499999999873475);
#63=CONICAL_SURFACE('',#219,0.793542199757783,0.0049999999999713);
#64=FACE_BOUND('',#100,.T.);
#65=FACE_BOUND('',#101,.T.);
#66=FACE_BOUND('',#102,.T.);
#67=FACE_BOUND('',#103,.T.);
#68=FACE_BOUND('',#104,.T.);
#69=FACE_BOUND('',#105,.T.);
#70=FACE_BOUND('',#106,.T.);
#71=FACE_BOUND('',#107,.T.);
#72=FACE_BOUND('',#110,.T.);
#73=FACE_BOUND('',#111,.T.);
#74=FACE_BOUND('',#114,.T.);
#75=FACE_BOUND('',#115,.T.);
#76=ADVANCED_FACE('',(#93),#88,.T.);
#77=ADVANCED_FACE('',(#64,#65),#60,.T.);
#78=ADVANCED_FACE('',(#66,#67),#59,.T.);
#79=ADVANCED_FACE('',(#68,#69),#61,.T.);
#80=ADVANCED_FACE('',(#70,#71),#89,.T.);
#81=ADVANCED_FACE('',(#94),#90,.T.);
#82=ADVANCED_FACE('',(#95),#36,.T.);
#83=ADVANCED_FACE('',(#72,#73),#62,.T.);
#84=ADVANCED_FACE('',(#96),#91,.T.);
#85=ADVANCED_FACE('',(#97),#37,.T.);
#86=ADVANCED_FACE('',(#74,#75),#63,.T.);
#87=ADVANCED_FACE('',(#98),#92,.F.);
#88=PLANE('',#201);
#89=PLANE('',#209);
#90=PLANE('',#210);
#91=PLANE('',#215);
#92=PLANE('',#220);
#93=FACE_OUTER_BOUND('',#99,.T.);
#94=FACE_OUTER_BOUND('',#108,.T.);
#95=FACE_OUTER_BOUND('',#109,.T.);
#96=FACE_OUTER_BOUND('',#112,.T.);
#97=FACE_OUTER_BOUND('',#113,.T.);
#98=FACE_OUTER_BOUND('',#116,.T.);
#99=EDGE_LOOP('',(#117));
#100=EDGE_LOOP('',(#118));
#101=EDGE_LOOP('',(#119));
#102=EDGE_LOOP('',(#120));
#103=EDGE_LOOP('',(#121));
#104=EDGE_LOOP('',(#122));
#105=EDGE_LOOP('',(#123));
#106=EDGE_LOOP('',(#124));
#107=EDGE_LOOP('',(#125));
#108=EDGE_LOOP('',(#126));
#109=EDGE_LOOP('',(#127));
#110=EDGE_LOOP('',(#128));
#111=EDGE_LOOP('',(#129));
#112=EDGE_LOOP('',(#130));
#113=EDGE_LOOP('',(#131));
#114=EDGE_LOOP('',(#132));
#115=EDGE_LOOP('',(#133));
#116=EDGE_LOOP('',(#134));
#117=ORIENTED_EDGE('',*,*,#144,.T.);
#118=ORIENTED_EDGE('',*,*,#145,.T.);
#119=ORIENTED_EDGE('',*,*,#144,.F.);
#120=ORIENTED_EDGE('',*,*,#146,.T.);
#121=ORIENTED_EDGE('',*,*,#145,.F.);
#122=ORIENTED_EDGE('',*,*,#147,.T.);
#123=ORIENTED_EDGE('',*,*,#146,.F.);
#124=ORIENTED_EDGE('',*,*,#148,.T.);
#125=ORIENTED_EDGE('',*,*,#147,.F.);
#126=ORIENTED_EDGE('',*,*,#148,.F.);
#127=ORIENTED_EDGE('',*,*,#149,.T.);
#128=ORIENTED_EDGE('',*,*,#150,.F.);
#129=ORIENTED_EDGE('',*,*,#149,.F.);
#130=ORIENTED_EDGE('',*,*,#150,.T.);
#131=ORIENTED_EDGE('',*,*,#151,.F.);
#132=ORIENTED_EDGE('',*,*,#151,.T.);
#133=ORIENTED_EDGE('',*,*,#152,.F.);
#134=ORIENTED_EDGE('',*,*,#152,.T.);
#135=VERTEX_POINT('',#290);
#136=VERTEX_POINT('',#293);
#137=VERTEX_POINT('',#296);
#138=VERTEX_POINT('',#299);
#139=VERTEX_POINT('',#302);
#140=VERTEX_POINT('',#306);
#141=VERTEX_POINT('',#309);
#142=VERTEX_POINT('',#313);
#143=VERTEX_POINT('',#316);
#144=EDGE_CURVE('',#135,#135,#153,.T.);
#145=EDGE_CURVE('',#136,#136,#154,.T.);
#146=EDGE_CURVE('',#137,#137,#155,.T.);
#147=EDGE_CURVE('',#138,#138,#156,.T.);
#148=EDGE_CURVE('',#139,#139,#157,.T.);
#149=EDGE_CURVE('',#140,#140,#158,.T.);
#150=EDGE_CURVE('',#141,#141,#159,.T.);
#151=EDGE_CURVE('',#142,#142,#160,.T.);
#152=EDGE_CURVE('',#143,#143,#161,.T.);
#153=CIRCLE('',#200,0.793750000000003);
#154=CIRCLE('',#202,1.58750000000001);
#155=CIRCLE('',#204,1.5875);
#156=CIRCLE('',#206,0.793750000000002);
#157=CIRCLE('',#208,0.793542199757783);
#158=CIRCLE('',#211,0.793749996977559);
#159=CIRCLE('',#213,0.793542199757771);
#160=CIRCLE('',#216,0.793749996977623);
#161=CIRCLE('',#218,0.793542199757783);
#162=CURVE_STYLE('',#167,POSITIVE_LENGTH_MEASURE(0.18),#166);
#163=CURVE_STYLE('',#168,POSITIVE_LENGTH_MEASURE(0.18),#193);
#164=CURVE_STYLE('',#169,POSITIVE_LENGTH_MEASURE(0.18),#193);
#165=CURVE_STYLE('',#170,POSITIVE_LENGTH_MEASURE(0.18),#193);
#166=DRAUGHTING_PRE_DEFINED_COLOUR('blue');
#167=DRAUGHTING_PRE_DEFINED_CURVE_FONT('continuous');
#168=DRAUGHTING_PRE_DEFINED_CURVE_FONT('continuous');
#169=DRAUGHTING_PRE_DEFINED_CURVE_FONT('continuous');
#170=DRAUGHTING_PRE_DEFINED_CURVE_FONT('continuous');
#171=TRIMMED_CURVE('CUTTING PART LINE',#172,(PARAMETER_VALUE(0.)),(
PARAMETER_VALUE(1.)),.T.,.PARAMETER.);
#172=(
BOUNDED_CURVE()
B_SPLINE_CURVE(3,(#273,#274,#275,#276,#277,#278,#279,#280,#281,#282,#283,
#284,#285),.UNSPECIFIED.,.T.,.F.)
B_SPLINE_CURVE_WITH_KNOTS((4,3,3,3,4),(0.,0.417949486746927,0.582086984631044,
0.895539982649736,1.),.UNSPECIFIED.)
CURVE()
GEOMETRIC_REPRESENTATION_ITEM()
RATIONAL_B_SPLINE_CURVE((1.,1.,1.,1.,0.804717284773135,0.804717284773135,
1.,1.,1.,1.,1.,1.,1.))
REPRESENTATION_ITEM('CUTTING PART LINE')
);
#173=PRESENTATION_LAYER_ASSIGNMENT('1','Layer 1',(#272,#171,#197,#198,#199,
#53,#54,#55));
#174=STYLED_ITEM('',(#182),#272);
#175=STYLED_ITEM('',(#183),#171);
#176=STYLED_ITEM('',(#184),#197);
#177=STYLED_ITEM('',(#185),#198);
#178=STYLED_ITEM('',(#186),#199);
#179=STYLED_ITEM('',(#187),#53);
#180=STYLED_ITEM('',(#188),#54);
#181=STYLED_ITEM('',(#189),#55);
#182=PRESENTATION_STYLE_ASSIGNMENT((#190));
#183=PRESENTATION_STYLE_ASSIGNMENT((#162));
#184=PRESENTATION_STYLE_ASSIGNMENT((#163));
#185=PRESENTATION_STYLE_ASSIGNMENT((#164));
#186=PRESENTATION_STYLE_ASSIGNMENT((#165));
#187=PRESENTATION_STYLE_ASSIGNMENT((#38));
#188=PRESENTATION_STYLE_ASSIGNMENT((#39));
#189=PRESENTATION_STYLE_ASSIGNMENT((#40));
#190=POINT_STYLE('',#191,POSITIVE_LENGTH_MEASURE(3.),#192);
#191=PRE_DEFINED_POINT_MARKER_SYMBOL('plus');
#192=COLOUR_RGB('Medium Royal',0.301960784313725,0.427450980392157,0.701960784313725);
#193=COLOUR_RGB('Pale Maroon',0.811764705882353,0.603921568627451,0.611764705882353);
#194=COLOUR_RGB('medium gray',0.490196078431373,0.490196078431373,0.490196078431373);
#195=COLOUR_RGB('light gray',0.8,0.8,0.8);
#196=AXIS2_PLACEMENT_3D('',#271,#221,#222);
#197=AXIS2_PLACEMENT_3D('MCS',#286,#223,#224);
#198=AXIS2_PLACEMENT_3D('PCS',#287,#225,#226);
#199=AXIS2_PLACEMENT_3D('CIP',#288,#227,#228);
#200=AXIS2_PLACEMENT_3D('',#289,#229,#230);
#201=AXIS2_PLACEMENT_3D('',#291,#231,#232);
#202=AXIS2_PLACEMENT_3D('',#292,#233,#234);
#203=AXIS2_PLACEMENT_3D('',#294,#235,#236);
#204=AXIS2_PLACEMENT_3D('',#295,#237,#238);
#205=AXIS2_PLACEMENT_3D('',#297,#239,#240);
#206=AXIS2_PLACEMENT_3D('',#298,#241,#242);
#207=AXIS2_PLACEMENT_3D('',#300,#243,#244);
#208=AXIS2_PLACEMENT_3D('',#301,#245,#246);
#209=AXIS2_PLACEMENT_3D('',#303,#247,#248);
#210=AXIS2_PLACEMENT_3D('',#304,#249,#250);
#211=AXIS2_PLACEMENT_3D('',#305,#251,#252);
#212=AXIS2_PLACEMENT_3D('',#307,#253,#254);
#213=AXIS2_PLACEMENT_3D('',#308,#255,#256);
#214=AXIS2_PLACEMENT_3D('',#310,#257,#258);
#215=AXIS2_PLACEMENT_3D('',#311,#259,#260);
#216=AXIS2_PLACEMENT_3D('',#312,#261,#262);
#217=AXIS2_PLACEMENT_3D('',#314,#263,#264);
#218=AXIS2_PLACEMENT_3D('',#315,#265,#266);
#219=AXIS2_PLACEMENT_3D('',#317,#267,#268);
#220=AXIS2_PLACEMENT_3D('',#318,#269,#270);
#221=DIRECTION('',(0.,0.,1.));
#222=DIRECTION('',(1.,0.,0.));
#223=DIRECTION('',(0.,0.,1.));
#224=DIRECTION('',(1.,0.,0.));
#225=DIRECTION('',(0.,0.,1.));
#226=DIRECTION('',(1.,0.,0.));
#227=DIRECTION('',(0.,0.,1.));
#228=DIRECTION('',(1.,0.,0.));
#229=DIRECTION('',(0.,0.,-1.));
#230=DIRECTION('',(-1.,0.,0.));
#231=DIRECTION('',(0.,0.,-1.));
#232=DIRECTION('',(-1.,0.,0.));
#233=DIRECTION('',(0.,0.,-1.));
#234=DIRECTION('',(-1.,0.,0.));
#235=DIRECTION('',(0.,0.,1.));
#236=DIRECTION('',(1.,0.,7.23959940993558E-17));
#237=DIRECTION('',(0.,0.,-1.));
#238=DIRECTION('',(-1.,0.,0.));
#239=DIRECTION('',(0.,0.,-1.));
#240=DIRECTION('',(-1.,0.,0.));
#241=DIRECTION('',(0.,0.,-1.));
#242=DIRECTION('',(-1.,0.,0.));
#243=DIRECTION('',(0.,0.,-1.));
#244=DIRECTION('',(-1.,0.,-9.6262261387855E-17));
#245=DIRECTION('',(0.,0.,-1.));
#246=DIRECTION('',(1.,0.,0.));
#247=DIRECTION('',(0.,0.,1.));
#248=DIRECTION('',(1.,0.,0.));
#249=DIRECTION('',(0.,0.,1.));
#250=DIRECTION('',(1.,0.,0.));
#251=DIRECTION('',(0.,0.,-1.));
#252=DIRECTION('',(-1.,0.,0.));
#253=DIRECTION('',(6.12323399573668E-17,0.,-1.));
#254=DIRECTION('',(1.,0.,0.));
#255=DIRECTION('',(0.,0.,1.));
#256=DIRECTION('',(-1.,0.,0.));
#257=DIRECTION('',(0.,0.,-1.));
#258=DIRECTION('',(-1.,0.,-1.57520187662914E-14));
#259=DIRECTION('',(0.,0.,1.));
#260=DIRECTION('',(1.,0.,0.));
#261=DIRECTION('',(0.,0.,-1.));
#262=DIRECTION('',(-1.,0.,0.));
#263=DIRECTION('',(6.12323399573677E-17,0.,-1.));
#264=DIRECTION('',(1.,0.,0.));
#265=DIRECTION('',(0.,0.,-1.));
#266=DIRECTION('',(1.,0.,0.));
#267=DIRECTION('',(0.,0.,1.));
#268=DIRECTION('',(1.,0.,-5.12061385084029E-14));
#269=DIRECTION('',(0.,0.,1.));
#270=DIRECTION('',(1.,0.,0.));
#271=CARTESIAN_POINT('',(0.,0.,0.));
#272=CARTESIAN_POINT('CRP',(-0.79375,0.,-38.1));
#273=CARTESIAN_POINT('',(0.,0.,-34.925));
#274=CARTESIAN_POINT('',(0.,0.,-35.9833333333333));
#275=CARTESIAN_POINT('',(0.,0.,-37.0416666666667));
#276=CARTESIAN_POINT('',(-3.28194225397906E-16,0.,-38.1));
#277=CARTESIAN_POINT('',(-0.46500015802883,0.,-38.1));
#278=CARTESIAN_POINT('',(-0.793790575896473,0.,-37.7711808885036));
#279=CARTESIAN_POINT('',(-0.793749996977623,0.,-37.3061807322454));
#280=CARTESIAN_POINT('',(-0.793680731237673,0.,-36.5124538214969));
#281=CARTESIAN_POINT('',(-0.793611465497729,0.,-35.7187269107485));
#282=CARTESIAN_POINT('',(-0.793542199757781,0.,-34.925));
#283=CARTESIAN_POINT('',(-0.529028133171854,0.,-34.925));
#284=CARTESIAN_POINT('',(-0.264514066585927,0.,-34.925));
#285=CARTESIAN_POINT('',(0.,0.,-34.925));
#286=CARTESIAN_POINT('',(0.,0.,-19.05));
#287=CARTESIAN_POINT('',(0.,0.,0.));
#288=CARTESIAN_POINT('',(0.,0.,-38.1));
#289=CARTESIAN_POINT('',(0.,0.,-34.9249999818661));
#290=CARTESIAN_POINT('',(-0.793750000000003,0.,-34.9249999818661));
#291=CARTESIAN_POINT('',(0.793542199757771,0.,-34.9249999909331));
#292=CARTESIAN_POINT('',(0.,0.,-32.1568647852013));
#293=CARTESIAN_POINT('',(-1.58750000000001,0.,-32.1568647852013));
#294=CARTESIAN_POINT('',(0.,0.,-34.9249999818661));
#295=CARTESIAN_POINT('',(0.,0.,-5.9431352147987));
#296=CARTESIAN_POINT('',(-1.5875,0.,-5.9431352147987));
#297=CARTESIAN_POINT('',(0.,0.,-19.05));
#298=CARTESIAN_POINT('',(0.,0.,-3.175));
#299=CARTESIAN_POINT('',(-0.793750000000002,0.,-3.175));
#300=CARTESIAN_POINT('',(0.,0.,-5.9431352147987));
#301=CARTESIAN_POINT('',(0.,0.,-3.175));
#302=CARTESIAN_POINT('',(0.793542199757783,0.,-3.175));
#303=CARTESIAN_POINT('',(0.793750000000002,0.,-3.175));
#304=CARTESIAN_POINT('',(0.,0.,-3.175));
#305=CARTESIAN_POINT('',(0.,0.,-37.3061807322454));
#306=CARTESIAN_POINT('',(-0.793749996977559,0.,-37.3061807322454));
#307=CARTESIAN_POINT('',(-1.38777878078145E-14,0.,-37.30625));
#308=CARTESIAN_POINT('',(0.,0.,-34.9250000000001));
#309=CARTESIAN_POINT('',(-0.793542199757771,0.,-34.9250000000001));
#310=CARTESIAN_POINT('',(0.,0.,-37.3061807322454));
#311=CARTESIAN_POINT('',(0.,0.,-34.925));
#312=CARTESIAN_POINT('',(0.,0.,-0.793819267754597));
#313=CARTESIAN_POINT('',(-0.793749996977623,0.,-0.793819267754597));
#314=CARTESIAN_POINT('',(6.50521303491303E-16,0.,-0.793749999999996));
#315=CARTESIAN_POINT('',(0.,0.,-3.175));
#316=CARTESIAN_POINT('',(0.793542199757783,0.,-3.175));
#317=CARTESIAN_POINT('',(0.,0.,-3.17499999999999));
#318=CARTESIAN_POINT('',(0.,0.,-3.175));
#319=MECHANICAL_DESIGN_GEOMETRIC_PRESENTATION_REPRESENTATION('',(#174,#175,
#176,#177,#178,#179,#180,#181),#320);
#320=(
GEOMETRIC_REPRESENTATION_CONTEXT(3)
GLOBAL_UNCERTAINTY_ASSIGNED_CONTEXT((#321))
GLOBAL_UNIT_ASSIGNED_CONTEXT((#327,#323,#322))
REPRESENTATION_CONTEXT('C5341-.063XF2B','TOP_LEVEL_ASSEMBLY_PART')
);
#321=UNCERTAINTY_MEASURE_WITH_UNIT(LENGTH_MEASURE(2.E-5),#327,
'DISTANCE_ACCURACY_VALUE','Maximum Tolerance applied to model');
#322=(
NAMED_UNIT(*)
SI_UNIT($,.STERADIAN.)
SOLID_ANGLE_UNIT()
);
#323=(
CONVERSION_BASED_UNIT('DEGREE',#325)
NAMED_UNIT(#324)
PLANE_ANGLE_UNIT()
);
#324=DIMENSIONAL_EXPONENTS(0.,0.,0.,0.,0.,0.,0.);
#325=PLANE_ANGLE_MEASURE_WITH_UNIT(PLANE_ANGLE_MEASURE(0.0174532925),#326);
#326=(
NAMED_UNIT(*)
PLANE_ANGLE_UNIT()
SI_UNIT($,.RADIAN.)
);
#327=(
LENGTH_UNIT()
NAMED_UNIT(*)
SI_UNIT(.MILLI.,.METRE.)
);
ENDSEC;
END-ISO-10303-21;
