ISO-10303-21;
HEADER;
/* Generated by software containing ST-Developer
 * from STEP Tools, Inc. (www.steptools.com) 
 */
/* OPTION: using custom schema-name function */

FILE_DESCRIPTION(
/* description */ (''),
/* implementation_level */ '2;1');

FILE_NAME(
/* name */ 'C5341-.109F3B.0Z4_Basic.stp',
/* time_stamp */ '2024-07-11T15:02:49+06:00',
/* author */ (''),
/* organization */ (''),
/* preprocessor_version */ 'ST-DEVELOPER v16.7',
/* originating_system */ 'SIEMENS PLM Software NX 12.0',
/* authorisation */ '');

FILE_SCHEMA (('AUTOMOTIVE_DESIGN { 1 0 10303 214 3 1 1 1 }'));
ENDSEC;

DATA;
#10=CONSTRUCTIVE_GEOMETRY_REPRESENTATION_RELATIONSHIP(
'supplemental geometry','',#34,#11);
#11=CONSTRUCTIVE_GEOMETRY_REPRESENTATION('supplemental geometry',(#165,
#166,#167),#260);
#12=GEOMETRICALLY_BOUNDED_WIREFRAME_SHAPE_REPRESENTATION(
'inpu27901F81fvhy-None',(#35),#260);
#13=PROPERTY_DEFINITION_REPRESENTATION(#17,#15);
#14=PROPERTY_DEFINITION_REPRESENTATION(#18,#16);
#15=REPRESENTATION('',(#19),#260);
#16=REPRESENTATION('',(#20),#260);
#17=PROPERTY_DEFINITION('pmi validation property','',#25);
#18=PROPERTY_DEFINITION('pmi validation property','',#25);
#19=VALUE_REPRESENTATION_ITEM('number of annotations',COUNT_MEASURE(0.));
#20=VALUE_REPRESENTATION_ITEM('number of views',COUNT_MEASURE(0.));
#21=SHAPE_REPRESENTATION_RELATIONSHIP('None',
'relationship between inpu27901F81fvhy-None and inpu27901F81fvhy-None',
#34,#23);
#22=SHAPE_REPRESENTATION_RELATIONSHIP('None',
'relationship between inpu27901F81fvhy-None and inpu27901F81fvhy-None',
#34,#12);
#23=ADVANCED_BREP_SHAPE_REPRESENTATION('inpu27901F81fvhy-None',(#47,#48),
#260);
#24=SHAPE_DEFINITION_REPRESENTATION(#25,#34);
#25=PRODUCT_DEFINITION_SHAPE('','',#26);
#26=PRODUCT_DEFINITION(' ','',#28,#27);
#27=PRODUCT_DEFINITION_CONTEXT('part definition',#33,'design');
#28=PRODUCT_DEFINITION_FORMATION_WITH_SPECIFIED_SOURCE(' ',' ',#30,
 .NOT_KNOWN.);
#29=PRODUCT_RELATED_PRODUCT_CATEGORY('part','',(#30));
#30=PRODUCT('inpu27901F81fvhy','inpu27901F81fvhy',' ',(#31));
#31=PRODUCT_CONTEXT(' ',#33,'mechanical');
#32=APPLICATION_PROTOCOL_DEFINITION('international standard',
'automotive_design',2010,#33);
#33=APPLICATION_CONTEXT(
'core data for automotive mechanical design processes');
#34=SHAPE_REPRESENTATION('inpu27901F81fvhy-None',(#164),#260);
#35=GEOMETRIC_CURVE_SET('None',(#219,#220,#221,#222,#129));
#36=CYLINDRICAL_SURFACE('',#181,1.5875);
#37=SURFACE_STYLE_USAGE(.BOTH.,#39);
#38=SURFACE_STYLE_USAGE(.BOTH.,#40);
#39=SURFACE_SIDE_STYLE('',(#41));
#40=SURFACE_SIDE_STYLE('',(#42));
#41=SURFACE_STYLE_FILL_AREA(#43);
#42=SURFACE_STYLE_FILL_AREA(#44);
#43=FILL_AREA_STYLE('',(#45));
#44=FILL_AREA_STYLE('',(#46));
#45=FILL_AREA_STYLE_COLOUR('',#162);
#46=FILL_AREA_STYLE_COLOUR('',#163);
#47=MANIFOLD_SOLID_BREP('CUT',#49);
#48=MANIFOLD_SOLID_BREP('NOCUT',#50);
#49=CLOSED_SHELL('',(#65,#66,#67));
#50=CLOSED_SHELL('',(#68,#69,#70,#71,#72));
#51=PLANE('',#172);
#52=PLANE('',#176);
#53=PLANE('',#178);
#54=CONICAL_SURFACE('',#171,1.38906249471085,0.00500000000008132);
#55=CONICAL_SURFACE('',#175,1.5875,45.);
#56=CONICAL_SURFACE('',#180,1.3890625,16.0000013591705);
#57=FACE_BOUND('',#79,.T.);
#58=FACE_BOUND('',#80,.T.);
#59=FACE_BOUND('',#82,.T.);
#60=FACE_BOUND('',#83,.T.);
#61=FACE_BOUND('',#86,.T.);
#62=FACE_BOUND('',#87,.T.);
#63=FACE_BOUND('',#88,.T.);
#64=FACE_BOUND('',#89,.T.);
#65=ADVANCED_FACE('',(#74),#73,.T.);
#66=ADVANCED_FACE('',(#57,#58),#54,.T.);
#67=ADVANCED_FACE('',(#75),#51,.F.);
#68=ADVANCED_FACE('',(#59,#60),#55,.T.);
#69=ADVANCED_FACE('',(#76),#52,.T.);
#70=ADVANCED_FACE('',(#77),#53,.T.);
#71=ADVANCED_FACE('',(#61,#62),#56,.T.);
#72=ADVANCED_FACE('',(#63,#64),#36,.T.);
#73=SPHERICAL_SURFACE('',#169,1.38906250000001);
#74=FACE_OUTER_BOUND('',#78,.T.);
#75=FACE_OUTER_BOUND('',#81,.T.);
#76=FACE_OUTER_BOUND('',#84,.T.);
#77=FACE_OUTER_BOUND('',#85,.T.);
#78=EDGE_LOOP('',(#90));
#79=EDGE_LOOP('',(#91));
#80=EDGE_LOOP('',(#92));
#81=EDGE_LOOP('',(#93));
#82=EDGE_LOOP('',(#94));
#83=EDGE_LOOP('',(#95));
#84=EDGE_LOOP('',(#96));
#85=EDGE_LOOP('',(#97));
#86=EDGE_LOOP('',(#98));
#87=EDGE_LOOP('',(#99));
#88=EDGE_LOOP('',(#100));
#89=EDGE_LOOP('',(#101));
#90=ORIENTED_EDGE('',*,*,#108,.T.);
#91=ORIENTED_EDGE('',*,*,#109,.F.);
#92=ORIENTED_EDGE('',*,*,#108,.F.);
#93=ORIENTED_EDGE('',*,*,#109,.T.);
#94=ORIENTED_EDGE('',*,*,#110,.T.);
#95=ORIENTED_EDGE('',*,*,#111,.F.);
#96=ORIENTED_EDGE('',*,*,#110,.F.);
#97=ORIENTED_EDGE('',*,*,#112,.T.);
#98=ORIENTED_EDGE('',*,*,#113,.T.);
#99=ORIENTED_EDGE('',*,*,#112,.F.);
#100=ORIENTED_EDGE('',*,*,#111,.T.);
#101=ORIENTED_EDGE('',*,*,#113,.F.);
#102=VERTEX_POINT('',#240);
#103=VERTEX_POINT('',#243);
#104=VERTEX_POINT('',#247);
#105=VERTEX_POINT('',#249);
#106=VERTEX_POINT('',#253);
#107=VERTEX_POINT('',#256);
#108=EDGE_CURVE('',#102,#102,#114,.T.);
#109=EDGE_CURVE('',#103,#103,#115,.T.);
#110=EDGE_CURVE('',#104,#104,#116,.T.);
#111=EDGE_CURVE('',#105,#105,#117,.T.);
#112=EDGE_CURVE('',#106,#106,#118,.T.);
#113=EDGE_CURVE('',#107,#107,#119,.T.);
#114=CIRCLE('',#168,1.38906249471085);
#115=CIRCLE('',#170,1.38835251080179);
#116=CIRCLE('',#173,1.2827);
#117=CIRCLE('',#174,1.5875);
#118=CIRCLE('',#177,1.3890625);
#119=CIRCLE('',#179,1.5875);
#120=CURVE_STYLE('',#125,POSITIVE_LENGTH_MEASURE(0.18),#124);
#121=CURVE_STYLE('',#126,POSITIVE_LENGTH_MEASURE(0.18),#161);
#122=CURVE_STYLE('',#127,POSITIVE_LENGTH_MEASURE(0.18),#161);
#123=CURVE_STYLE('',#128,POSITIVE_LENGTH_MEASURE(0.18),#161);
#124=DRAUGHTING_PRE_DEFINED_COLOUR('blue');
#125=DRAUGHTING_PRE_DEFINED_CURVE_FONT('continuous');
#126=DRAUGHTING_PRE_DEFINED_CURVE_FONT('continuous');
#127=DRAUGHTING_PRE_DEFINED_CURVE_FONT('continuous');
#128=DRAUGHTING_PRE_DEFINED_CURVE_FONT('continuous');
#129=TRIMMED_CURVE('CUTTING PART LINE',#130,(PARAMETER_VALUE(0.)),(
PARAMETER_VALUE(1.)),.T.,.PARAMETER.);
#130=(
BOUNDED_CURVE()
B_SPLINE_CURVE(3,(#223,#224,#225,#226,#227,#228,#229,#230,#231,#232,#233,
#234,#235),.UNSPECIFIED.,.T.,.F.)
B_SPLINE_CURVE_WITH_KNOTS((1,3,3,3,3,3,1),(-0.065392013679818,0.,0.448631687880786,
0.55140746090723,0.934607986320182,1.,1.44863168788079),.UNSPECIFIED.)
CURVE()
GEOMETRIC_REPRESENTATION_ITEM()
RATIONAL_B_SPLINE_CURVE((1.,1.,1.,1.,0.804717284773137,0.804717284773137,
1.,1.,1.,1.,1.,1.,1.))
REPRESENTATION_ITEM('CUTTING PART LINE')
);
#131=PRESENTATION_LAYER_ASSIGNMENT('1','Layer 1',(#219,#220,#221,#222,#129,
#165,#166,#167,#47,#48));
#132=STYLED_ITEM('',(#142),#219);
#133=STYLED_ITEM('',(#143),#220);
#134=STYLED_ITEM('',(#144),#221);
#135=STYLED_ITEM('',(#145),#222);
#136=STYLED_ITEM('',(#146),#129);
#137=STYLED_ITEM('',(#147),#165);
#138=STYLED_ITEM('',(#148),#166);
#139=STYLED_ITEM('',(#149),#167);
#140=STYLED_ITEM('',(#150),#47);
#141=STYLED_ITEM('',(#151),#48);
#142=PRESENTATION_STYLE_ASSIGNMENT((#152));
#143=PRESENTATION_STYLE_ASSIGNMENT((#153));
#144=PRESENTATION_STYLE_ASSIGNMENT((#154));
#145=PRESENTATION_STYLE_ASSIGNMENT((#155));
#146=PRESENTATION_STYLE_ASSIGNMENT((#120));
#147=PRESENTATION_STYLE_ASSIGNMENT((#121));
#148=PRESENTATION_STYLE_ASSIGNMENT((#122));
#149=PRESENTATION_STYLE_ASSIGNMENT((#123));
#150=PRESENTATION_STYLE_ASSIGNMENT((#37));
#151=PRESENTATION_STYLE_ASSIGNMENT((#38));
#152=POINT_STYLE('',#156,POSITIVE_LENGTH_MEASURE(3.),#160);
#153=POINT_STYLE('',#157,POSITIVE_LENGTH_MEASURE(3.),#161);
#154=POINT_STYLE('',#158,POSITIVE_LENGTH_MEASURE(3.),#161);
#155=POINT_STYLE('',#159,POSITIVE_LENGTH_MEASURE(3.),#161);
#156=PRE_DEFINED_POINT_MARKER_SYMBOL('plus');
#157=PRE_DEFINED_POINT_MARKER_SYMBOL('plus');
#158=PRE_DEFINED_POINT_MARKER_SYMBOL('plus');
#159=PRE_DEFINED_POINT_MARKER_SYMBOL('plus');
#160=COLOUR_RGB('Pale Royal',0.219592584115358,0.470572976272221,0.752941176470588);
#161=COLOUR_RGB('Pale Maroon',0.811749446860456,0.603921568627451,0.611749446860456);
#162=COLOUR_RGB('Light Gray',0.8,0.8,0.8);
#163=COLOUR_RGB('Medium Gray',0.490196078431373,0.490196078431373,0.490196078431373);
#164=AXIS2_PLACEMENT_3D('',#218,#182,#183);
#165=AXIS2_PLACEMENT_3D('MCS',#236,#184,#185);
#166=AXIS2_PLACEMENT_3D('CIP',#237,#186,#187);
#167=AXIS2_PLACEMENT_3D('PCS',#238,#188,#189);
#168=AXIS2_PLACEMENT_3D('',#239,#190,#191);
#169=AXIS2_PLACEMENT_3D('',#241,#192,#193);
#170=AXIS2_PLACEMENT_3D('',#242,#194,#195);
#171=AXIS2_PLACEMENT_3D('',#244,#196,#197);
#172=AXIS2_PLACEMENT_3D('',#245,#198,#199);
#173=AXIS2_PLACEMENT_3D('',#246,#200,#201);
#174=AXIS2_PLACEMENT_3D('',#248,#202,#203);
#175=AXIS2_PLACEMENT_3D('',#250,#204,#205);
#176=AXIS2_PLACEMENT_3D('',#251,#206,#207);
#177=AXIS2_PLACEMENT_3D('',#252,#208,#209);
#178=AXIS2_PLACEMENT_3D('',#254,#210,#211);
#179=AXIS2_PLACEMENT_3D('',#255,#212,#213);
#180=AXIS2_PLACEMENT_3D('',#257,#214,#215);
#181=AXIS2_PLACEMENT_3D('',#258,#216,#217);
#182=DIRECTION('',(0.,0.,1.));
#183=DIRECTION('',(1.,0.,0.));
#184=DIRECTION('',(0.,0.,1.));
#185=DIRECTION('',(1.,0.,0.));
#186=DIRECTION('',(0.,0.,1.));
#187=DIRECTION('',(1.,0.,0.));
#188=DIRECTION('',(0.,0.,1.));
#189=DIRECTION('',(1.,0.,0.));
#190=DIRECTION('',(0.,0.,-1.));
#191=DIRECTION('',(-1.,0.,0.));
#192=DIRECTION('',(-3.69778549322349E-32,0.,-1.));
#193=DIRECTION('',(1.,0.,0.));
#194=DIRECTION('',(0.,0.,1.));
#195=DIRECTION('',(-1.,0.,0.));
#196=DIRECTION('',(0.,0.,-1.));
#197=DIRECTION('',(1.,0.,2.82006006933576E-14));
#198=DIRECTION('',(0.,0.,-1.));
#199=DIRECTION('',(1.,0.,0.));
#200=DIRECTION('',(0.,0.,-1.));
#201=DIRECTION('',(-1.,0.,0.));
#202=DIRECTION('',(0.,0.,-1.));
#203=DIRECTION('',(-1.,0.,0.));
#204=DIRECTION('',(0.,0.,-1.));
#205=DIRECTION('',(1.,0.,-1.03810189665266E-16));
#206=DIRECTION('',(0.,0.,1.));
#207=DIRECTION('',(-1.,0.,0.));
#208=DIRECTION('',(0.,0.,-1.));
#209=DIRECTION('',(-1.,0.,0.));
#210=DIRECTION('',(0.,0.,-1.));
#211=DIRECTION('',(1.,0.,0.));
#212=DIRECTION('',(0.,0.,-1.));
#213=DIRECTION('',(-1.,0.,0.));
#214=DIRECTION('',(0.,0.,1.));
#215=DIRECTION('',(-1.,0.,0.));
#216=DIRECTION('',(0.,0.,-1.));
#217=DIRECTION('',(1.,0.,0.));
#218=CARTESIAN_POINT('',(0.,0.,0.));
#219=CARTESIAN_POINT('CRP',(-1.3890625,0.,-38.1));
#220=CARTESIAN_POINT('',(0.,0.,-27.8829661963003));
#221=CARTESIAN_POINT('',(0.,0.,-38.1));
#222=CARTESIAN_POINT('',(0.,0.,0.));
#223=CARTESIAN_POINT('',(0.,0.,-28.575));
#224=CARTESIAN_POINT('',(0.,0.,-31.75));
#225=CARTESIAN_POINT('',(0.,0.,-34.925));
#226=CARTESIAN_POINT('',(-5.74339894446336E-16,0.,-38.1));
#227=CARTESIAN_POINT('',(-0.813750276550449,0.,-38.1));
#228=CARTESIAN_POINT('',(-1.38913350781882,0.,-37.5245665548814));
#229=CARTESIAN_POINT('',(-1.38906249471084,0.,-36.7108162814294));
#230=CARTESIAN_POINT('',(-1.38882583340783,0.,-33.998877520953));
#231=CARTESIAN_POINT('',(-1.38858917210481,0.,-31.2869387604765));
#232=CARTESIAN_POINT('',(-1.3883525108018,0.,-28.575));
#233=CARTESIAN_POINT('',(-0.925568340534531,0.,-28.575));
#234=CARTESIAN_POINT('',(-0.462784170267266,0.,-28.575));
#235=CARTESIAN_POINT('',(0.,0.,-28.575));
#236=CARTESIAN_POINT('',(0.,0.,-27.8829661963003));
#237=CARTESIAN_POINT('',(0.,0.,-38.1));
#238=CARTESIAN_POINT('',(0.,0.,0.));
#239=CARTESIAN_POINT('',(0.,0.,-36.7108162814294));
#240=CARTESIAN_POINT('',(-1.38906249471085,0.,-36.7108162814294));
#241=CARTESIAN_POINT('',(0.,0.,-36.7109375));
#242=CARTESIAN_POINT('',(0.,0.,-28.575));
#243=CARTESIAN_POINT('',(-1.38835251080179,0.,-28.575));
#244=CARTESIAN_POINT('',(0.,0.,-36.7108162814294));
#245=CARTESIAN_POINT('',(0.,0.,-28.575));
#246=CARTESIAN_POINT('',(0.,0.,0.));
#247=CARTESIAN_POINT('',(-1.2827,0.,0.));
#248=CARTESIAN_POINT('',(0.,0.,-0.304800000000001));
#249=CARTESIAN_POINT('',(-1.5875,0.,-0.304800000000001));
#250=CARTESIAN_POINT('',(0.,0.,-0.304800000000001));
#251=CARTESIAN_POINT('',(1.2827,0.,3.04573292217392E-17));
#252=CARTESIAN_POINT('',(0.,0.,-28.5749999380418));
#253=CARTESIAN_POINT('',(-1.3890625,0.,-28.5749999380418));
#254=CARTESIAN_POINT('',(1.38835251080179,0.,-28.5749999690209));
#255=CARTESIAN_POINT('',(0.,0.,-27.8829661963003));
#256=CARTESIAN_POINT('',(-1.5875,0.,-27.8829661963003));
#257=CARTESIAN_POINT('',(0.,0.,-28.5749999380418));
#258=CARTESIAN_POINT('',(0.,0.,-28.));
#259=MECHANICAL_DESIGN_GEOMETRIC_PRESENTATION_REPRESENTATION('',(#132,#133,
#134,#135,#136,#137,#138,#139,#140,#141),#260);
#260=(
GEOMETRIC_REPRESENTATION_CONTEXT(3)
GLOBAL_UNCERTAINTY_ASSIGNED_CONTEXT((#261))
GLOBAL_UNIT_ASSIGNED_CONTEXT((#267,#263,#262))
REPRESENTATION_CONTEXT('C5341-.109F3B','TOP_LEVEL_ASSEMBLY_PART')
);
#261=UNCERTAINTY_MEASURE_WITH_UNIT(LENGTH_MEASURE(2.E-5),#267,
'DISTANCE_ACCURACY_VALUE','Maximum Tolerance applied to model');
#262=(
NAMED_UNIT(*)
SI_UNIT($,.STERADIAN.)
SOLID_ANGLE_UNIT()
);
#263=(
CONVERSION_BASED_UNIT('DEGREE',#265)
NAMED_UNIT(#264)
PLANE_ANGLE_UNIT()
);
#264=DIMENSIONAL_EXPONENTS(0.,0.,0.,0.,0.,0.,0.);
#265=PLANE_ANGLE_MEASURE_WITH_UNIT(PLANE_ANGLE_MEASURE(0.0174532925),#266);
#266=(
NAMED_UNIT(*)
PLANE_ANGLE_UNIT()
SI_UNIT($,.RADIAN.)
);
#267=(
LENGTH_UNIT()
NAMED_UNIT(*)
SI_UNIT(.MILLI.,.METRE.)
);
ENDSEC;
END-ISO-10303-21;
