ISO-10303-21;
HEADER;
/* Generated by software containing ST-Developer
 * from STEP Tools, Inc. (www.steptools.com) 
 */
/* OPTION: using custom schema-name function */

FILE_DESCRIPTION(
/* description */ (''),
/* implementation_level */ '2;1');

FILE_NAME(
/* name */ 'C5341-.188D3B.0Z4_Basic.stp',
/* time_stamp */ '2024-06-10T15:22:02+06:00',
/* author */ (''),
/* organization */ (''),
/* preprocessor_version */ 'ST-DEVELOPER v16.7',
/* originating_system */ 'SIEMENS PLM Software NX 12.0',
/* authorisation */ '');

FILE_SCHEMA (('AUTOMOTIVE_DESIGN { 1 0 10303 214 3 1 1 1 }'));
ENDSEC;

DATA;
#10=CONSTRUCTIVE_GEOMETRY_REPRESENTATION_RELATIONSHIP(
'supplemental geometry','',#34,#11);
#11=CONSTRUCTIVE_GEOMETRY_REPRESENTATION('supplemental geometry',(#142,
#143,#144),#225);
#12=GEOMETRICALLY_BOUNDED_WIREFRAME_SHAPE_REPRESENTATION(
'inpu776C6A00v0ez-None',(#35),#225);
#13=PROPERTY_DEFINITION_REPRESENTATION(#17,#15);
#14=PROPERTY_DEFINITION_REPRESENTATION(#18,#16);
#15=REPRESENTATION('',(#19),#225);
#16=REPRESENTATION('',(#20),#225);
#17=PROPERTY_DEFINITION('pmi validation property','',#25);
#18=PROPERTY_DEFINITION('pmi validation property','',#25);
#19=VALUE_REPRESENTATION_ITEM('number of annotations',COUNT_MEASURE(0.));
#20=VALUE_REPRESENTATION_ITEM('number of views',COUNT_MEASURE(0.));
#21=SHAPE_REPRESENTATION_RELATIONSHIP('None',
'relationship between inpu776C6A00v0ez-None and inpu776C6A00v0ez-None',
#34,#23);
#22=SHAPE_REPRESENTATION_RELATIONSHIP('None',
'relationship between inpu776C6A00v0ez-None and inpu776C6A00v0ez-None',
#34,#12);
#23=ADVANCED_BREP_SHAPE_REPRESENTATION('inpu776C6A00v0ez-None',(#47,#48),
#225);
#24=SHAPE_DEFINITION_REPRESENTATION(#25,#34);
#25=PRODUCT_DEFINITION_SHAPE('','',#26);
#26=PRODUCT_DEFINITION(' ','',#28,#27);
#27=PRODUCT_DEFINITION_CONTEXT('part definition',#33,'design');
#28=PRODUCT_DEFINITION_FORMATION_WITH_SPECIFIED_SOURCE(' ',' ',#30,
 .NOT_KNOWN.);
#29=PRODUCT_RELATED_PRODUCT_CATEGORY('part','',(#30));
#30=PRODUCT('inpu776C6A00v0ez','inpu776C6A00v0ez',' ',(#31));
#31=PRODUCT_CONTEXT(' ',#33,'mechanical');
#32=APPLICATION_PROTOCOL_DEFINITION('international standard',
'automotive_design',2010,#33);
#33=APPLICATION_CONTEXT(
'core data for automotive mechanical design processes');
#34=SHAPE_REPRESENTATION('inpu776C6A00v0ez-None',(#141),#225);
#35=GEOMETRIC_CURVE_SET('None',(#190,#118));
#36=SPHERICAL_SURFACE('',#153,2.38124999999999);
#37=SURFACE_STYLE_USAGE(.BOTH.,#39);
#38=SURFACE_STYLE_USAGE(.BOTH.,#40);
#39=SURFACE_SIDE_STYLE('',(#41));
#40=SURFACE_SIDE_STYLE('',(#42));
#41=SURFACE_STYLE_FILL_AREA(#43);
#42=SURFACE_STYLE_FILL_AREA(#44);
#43=FILL_AREA_STYLE('',(#45));
#44=FILL_AREA_STYLE('',(#46));
#45=FILL_AREA_STYLE_COLOUR('',#139);
#46=FILL_AREA_STYLE_COLOUR('',#140);
#47=MANIFOLD_SOLID_BREP('NOCUT',#49);
#48=MANIFOLD_SOLID_BREP('CUT',#50);
#49=CLOSED_SHELL('',(#59,#60,#61,#62));
#50=CLOSED_SHELL('',(#63,#64,#65));
#51=CYLINDRICAL_SURFACE('',#151,2.38125);
#52=PLANE('',#148);
#53=PLANE('',#150);
#54=PLANE('',#156);
#55=FACE_OUTER_BOUND('',#76,.T.);
#56=FACE_OUTER_BOUND('',#77,.T.);
#57=FACE_OUTER_BOUND('',#80,.T.);
#58=FACE_OUTER_BOUND('',#83,.T.);
#59=ADVANCED_FACE('',(#68,#69),#66,.T.);
#60=ADVANCED_FACE('',(#55),#52,.T.);
#61=ADVANCED_FACE('',(#56),#53,.T.);
#62=ADVANCED_FACE('',(#70,#71),#51,.T.);
#63=ADVANCED_FACE('',(#57),#36,.T.);
#64=ADVANCED_FACE('',(#72,#73),#67,.T.);
#65=ADVANCED_FACE('',(#58),#54,.F.);
#66=CONICAL_SURFACE('',#147,2.38125,45.);
#67=CONICAL_SURFACE('',#155,2.38124999093287,0.00499999999998059);
#68=FACE_BOUND('',#74,.T.);
#69=FACE_BOUND('',#75,.T.);
#70=FACE_BOUND('',#78,.T.);
#71=FACE_BOUND('',#79,.T.);
#72=FACE_BOUND('',#81,.T.);
#73=FACE_BOUND('',#82,.T.);
#74=EDGE_LOOP('',(#84));
#75=EDGE_LOOP('',(#85));
#76=EDGE_LOOP('',(#86));
#77=EDGE_LOOP('',(#87));
#78=EDGE_LOOP('',(#88));
#79=EDGE_LOOP('',(#89));
#80=EDGE_LOOP('',(#90));
#81=EDGE_LOOP('',(#91));
#82=EDGE_LOOP('',(#92));
#83=EDGE_LOOP('',(#93));
#84=ORIENTED_EDGE('',*,*,#99,.T.);
#85=ORIENTED_EDGE('',*,*,#100,.F.);
#86=ORIENTED_EDGE('',*,*,#99,.F.);
#87=ORIENTED_EDGE('',*,*,#101,.T.);
#88=ORIENTED_EDGE('',*,*,#100,.T.);
#89=ORIENTED_EDGE('',*,*,#101,.F.);
#90=ORIENTED_EDGE('',*,*,#102,.T.);
#91=ORIENTED_EDGE('',*,*,#103,.F.);
#92=ORIENTED_EDGE('',*,*,#102,.F.);
#93=ORIENTED_EDGE('',*,*,#103,.T.);
#94=VERTEX_POINT('',#208);
#95=VERTEX_POINT('',#210);
#96=VERTEX_POINT('',#214);
#97=VERTEX_POINT('',#218);
#98=VERTEX_POINT('',#221);
#99=EDGE_CURVE('',#94,#94,#104,.T.);
#100=EDGE_CURVE('',#95,#95,#105,.T.);
#101=EDGE_CURVE('',#96,#96,#106,.T.);
#102=EDGE_CURVE('',#97,#97,#107,.T.);
#103=EDGE_CURVE('',#98,#98,#108,.T.);
#104=CIRCLE('',#145,2.07645);
#105=CIRCLE('',#146,2.38125);
#106=CIRCLE('',#149,2.38125);
#107=CIRCLE('',#152,2.38124999093287);
#108=CIRCLE('',#154,2.38007245723443);
#109=CURVE_STYLE('',#114,POSITIVE_LENGTH_MEASURE(0.18),#113);
#110=CURVE_STYLE('',#115,POSITIVE_LENGTH_MEASURE(0.18),#138);
#111=CURVE_STYLE('',#116,POSITIVE_LENGTH_MEASURE(0.18),#138);
#112=CURVE_STYLE('',#117,POSITIVE_LENGTH_MEASURE(0.18),#138);
#113=DRAUGHTING_PRE_DEFINED_COLOUR('blue');
#114=DRAUGHTING_PRE_DEFINED_CURVE_FONT('continuous');
#115=DRAUGHTING_PRE_DEFINED_CURVE_FONT('continuous');
#116=DRAUGHTING_PRE_DEFINED_CURVE_FONT('continuous');
#117=DRAUGHTING_PRE_DEFINED_CURVE_FONT('continuous');
#118=TRIMMED_CURVE('CUTTING PART LINE',#119,(PARAMETER_VALUE(0.)),(
PARAMETER_VALUE(1.)),.T.,.PARAMETER.);
#119=(
BOUNDED_CURVE()
B_SPLINE_CURVE(3,(#191,#192,#193,#194,#195,#196,#197,#198,#199,#200,#201,
#202,#203),.UNSPECIFIED.,.T.,.F.)
B_SPLINE_CURVE_WITH_KNOTS((4,3,3,3,4),(0.,0.447318160177346,0.552720873994403,
0.932935456211434,1.),.UNSPECIFIED.)
CURVE()
GEOMETRIC_REPRESENTATION_ITEM()
RATIONAL_B_SPLINE_CURVE((1.,1.,1.,1.,0.804717284773137,0.804717284773137,
1.,1.,1.,1.,1.,1.,1.))
REPRESENTATION_ITEM('CUTTING PART LINE')
);
#120=PRESENTATION_LAYER_ASSIGNMENT('1','Layer 1',(#190,#118,#142,#143,#144,
#47,#48));
#121=STYLED_ITEM('',(#128),#190);
#122=STYLED_ITEM('',(#129),#118);
#123=STYLED_ITEM('',(#130),#142);
#124=STYLED_ITEM('',(#131),#143);
#125=STYLED_ITEM('',(#132),#144);
#126=STYLED_ITEM('',(#133),#47);
#127=STYLED_ITEM('',(#134),#48);
#128=PRESENTATION_STYLE_ASSIGNMENT((#135));
#129=PRESENTATION_STYLE_ASSIGNMENT((#109));
#130=PRESENTATION_STYLE_ASSIGNMENT((#110));
#131=PRESENTATION_STYLE_ASSIGNMENT((#111));
#132=PRESENTATION_STYLE_ASSIGNMENT((#112));
#133=PRESENTATION_STYLE_ASSIGNMENT((#37));
#134=PRESENTATION_STYLE_ASSIGNMENT((#38));
#135=POINT_STYLE('',#136,POSITIVE_LENGTH_MEASURE(3.),#137);
#136=PRE_DEFINED_POINT_MARKER_SYMBOL('plus');
#137=COLOUR_RGB('Medium Royal',0.2,0.4,0.8);
#138=COLOUR_RGB('Pale Maroon',0.811749446860456,0.603921568627451,0.611749446860456);
#139=COLOUR_RGB('Medium Gray',0.490196078431373,0.490196078431373,0.490196078431373);
#140=COLOUR_RGB('Light Gray',0.8,0.8,0.8);
#141=AXIS2_PLACEMENT_3D('',#189,#157,#158);
#142=AXIS2_PLACEMENT_3D('MCS',#204,#159,#160);
#143=AXIS2_PLACEMENT_3D('CIP',#205,#161,#162);
#144=AXIS2_PLACEMENT_3D('PCS',#206,#163,#164);
#145=AXIS2_PLACEMENT_3D('',#207,#165,#166);
#146=AXIS2_PLACEMENT_3D('',#209,#167,#168);
#147=AXIS2_PLACEMENT_3D('',#211,#169,#170);
#148=AXIS2_PLACEMENT_3D('',#212,#171,#172);
#149=AXIS2_PLACEMENT_3D('',#213,#173,#174);
#150=AXIS2_PLACEMENT_3D('',#215,#175,#176);
#151=AXIS2_PLACEMENT_3D('',#216,#177,#178);
#152=AXIS2_PLACEMENT_3D('',#217,#179,#180);
#153=AXIS2_PLACEMENT_3D('',#219,#181,#182);
#154=AXIS2_PLACEMENT_3D('',#220,#183,#184);
#155=AXIS2_PLACEMENT_3D('',#222,#185,#186);
#156=AXIS2_PLACEMENT_3D('',#223,#187,#188);
#157=DIRECTION('',(0.,0.,1.));
#158=DIRECTION('',(1.,0.,0.));
#159=DIRECTION('',(0.,0.,1.));
#160=DIRECTION('',(1.,0.,0.));
#161=DIRECTION('',(0.,0.,1.));
#162=DIRECTION('',(1.,0.,0.));
#163=DIRECTION('',(0.,0.,1.));
#164=DIRECTION('',(1.,0.,0.));
#165=DIRECTION('',(0.,0.,-1.));
#166=DIRECTION('',(-1.,0.,0.));
#167=DIRECTION('',(0.,0.,-1.));
#168=DIRECTION('',(-1.,0.,0.));
#169=DIRECTION('',(0.,0.,-1.));
#170=DIRECTION('',(-1.,0.,-1.03836148729447E-16));
#171=DIRECTION('',(0.,0.,1.));
#172=DIRECTION('',(1.,0.,0.));
#173=DIRECTION('',(0.,0.,-1.));
#174=DIRECTION('',(-1.,0.,0.));
#175=DIRECTION('',(0.,0.,-1.));
#176=DIRECTION('',(-1.,0.,0.));
#177=DIRECTION('',(0.,0.,-1.));
#178=DIRECTION('',(-1.,0.,0.));
#179=DIRECTION('',(0.,0.,-1.));
#180=DIRECTION('',(-1.,0.,0.));
#181=DIRECTION('',(-6.12323399573677E-17,0.,-1.));
#182=DIRECTION('',(-1.,0.,0.));
#183=DIRECTION('',(0.,0.,1.));
#184=DIRECTION('',(-1.,0.,0.));
#185=DIRECTION('',(0.,0.,-1.));
#186=DIRECTION('',(-1.,0.,-2.52986140887171E-14));
#187=DIRECTION('',(0.,0.,-1.));
#188=DIRECTION('',(-1.,0.,0.));
#189=CARTESIAN_POINT('',(0.,0.,0.));
#190=CARTESIAN_POINT('CRP',(-2.38125,0.,-50.8));
#191=CARTESIAN_POINT('',(0.,0.,-34.925));
#192=CARTESIAN_POINT('',(0.,0.,-40.2166666666667));
#193=CARTESIAN_POINT('',(0.,0.,-45.5083333333333));
#194=CARTESIAN_POINT('',(7.29047547617417E-17,0.,-50.8));
#195=CARTESIAN_POINT('',(-1.39500047408648,0.,-50.8));
#196=CARTESIAN_POINT('',(-2.38137172768941,0.,-49.8135426655109));
#197=CARTESIAN_POINT('',(-2.38124999093287,0.,-48.4185421967362));
#198=CARTESIAN_POINT('',(-2.38085747970007,0.,-43.9206947978241));
#199=CARTESIAN_POINT('',(-2.38046496846725,0.,-39.4228473989121));
#200=CARTESIAN_POINT('',(-2.38007245723444,0.,-34.925));
#201=CARTESIAN_POINT('',(-1.58671497148962,0.,-34.925));
#202=CARTESIAN_POINT('',(-0.793357485744812,0.,-34.925));
#203=CARTESIAN_POINT('',(0.,0.,-34.925));
#204=CARTESIAN_POINT('',(0.,0.,-28.));
#205=CARTESIAN_POINT('',(0.,0.,-50.8));
#206=CARTESIAN_POINT('',(0.,0.,0.));
#207=CARTESIAN_POINT('',(0.,0.,0.));
#208=CARTESIAN_POINT('',(-2.07645,0.,0.));
#209=CARTESIAN_POINT('',(0.,0.,-0.304800000000001));
#210=CARTESIAN_POINT('',(-2.38125,0.,-0.304800000000001));
#211=CARTESIAN_POINT('',(0.,0.,-0.304800000000001));
#212=CARTESIAN_POINT('',(2.07645,0.,1.25810528154823E-16));
#213=CARTESIAN_POINT('',(0.,0.,-34.92499989724));
#214=CARTESIAN_POINT('',(-2.38125,0.,-34.92499989724));
#215=CARTESIAN_POINT('',(2.38007245723443,0.,-34.92499994862));
#216=CARTESIAN_POINT('',(0.,0.,-28.));
#217=CARTESIAN_POINT('',(0.,0.,-48.4185421967362));
#218=CARTESIAN_POINT('',(-2.38124999093287,0.,-48.4185421967362));
#219=CARTESIAN_POINT('',(0.,0.,-48.41875));
#220=CARTESIAN_POINT('',(0.,0.,-34.925));
#221=CARTESIAN_POINT('',(-2.38007245723443,0.,-34.925));
#222=CARTESIAN_POINT('',(0.,0.,-48.4185421967362));
#223=CARTESIAN_POINT('',(0.,0.,-34.925));
#224=MECHANICAL_DESIGN_GEOMETRIC_PRESENTATION_REPRESENTATION('',(#121,#122,
#123,#124,#125,#126,#127),#225);
#225=(
GEOMETRIC_REPRESENTATION_CONTEXT(3)
GLOBAL_UNCERTAINTY_ASSIGNED_CONTEXT((#226))
GLOBAL_UNIT_ASSIGNED_CONTEXT((#232,#228,#227))
REPRESENTATION_CONTEXT('C5341-.188D3B','TOP_LEVEL_ASSEMBLY_PART')
);
#226=UNCERTAINTY_MEASURE_WITH_UNIT(LENGTH_MEASURE(2.E-5),#232,
'DISTANCE_ACCURACY_VALUE','Maximum Tolerance applied to model');
#227=(
NAMED_UNIT(*)
SI_UNIT($,.STERADIAN.)
SOLID_ANGLE_UNIT()
);
#228=(
CONVERSION_BASED_UNIT('DEGREE',#230)
NAMED_UNIT(#229)
PLANE_ANGLE_UNIT()
);
#229=DIMENSIONAL_EXPONENTS(0.,0.,0.,0.,0.,0.,0.);
#230=PLANE_ANGLE_MEASURE_WITH_UNIT(PLANE_ANGLE_MEASURE(0.0174532925),#231);
#231=(
NAMED_UNIT(*)
PLANE_ANGLE_UNIT()
SI_UNIT($,.RADIAN.)
);
#232=(
LENGTH_UNIT()
NAMED_UNIT(*)
SI_UNIT(.MILLI.,.METRE.)
);
ENDSEC;
END-ISO-10303-21;
