ISO-10303-21;
HEADER;
/* Generated by software containing ST-Developer
 * from STEP Tools, Inc. (www.steptools.com) 
 */
/* OPTION: using custom schema-name function */

FILE_DESCRIPTION(
/* description */ (''),
/* implementation_level */ '2;1');

FILE_NAME(
/* name */ 'C5341-.344F3B.0Z4_Basic.stp',
/* time_stamp */ '2024-08-16T10:41:36+05:00',
/* author */ (''),
/* organization */ (''),
/* preprocessor_version */ 'ST-DEVELOPER v16.7',
/* originating_system */ 'SIEMENS PLM Software NX 12.0',
/* authorisation */ '');

FILE_SCHEMA (('AUTOMOTIVE_DESIGN { 1 0 10303 214 3 1 1 1 }'));
ENDSEC;

DATA;
#10=CONSTRUCTIVE_GEOMETRY_REPRESENTATION_RELATIONSHIP(
'supplemental geometry','',#34,#11);
#11=CONSTRUCTIVE_GEOMETRY_REPRESENTATION('supplemental geometry',(#164,
#165,#166),#275);
#12=GEOMETRICALLY_BOUNDED_WIREFRAME_SHAPE_REPRESENTATION(
'inpu1F0CA168ahsy-None',(#35),#275);
#13=PROPERTY_DEFINITION_REPRESENTATION(#17,#15);
#14=PROPERTY_DEFINITION_REPRESENTATION(#18,#16);
#15=REPRESENTATION('',(#19),#275);
#16=REPRESENTATION('',(#20),#275);
#17=PROPERTY_DEFINITION('pmi validation property','',#25);
#18=PROPERTY_DEFINITION('pmi validation property','',#25);
#19=VALUE_REPRESENTATION_ITEM('number of annotations',COUNT_MEASURE(0.));
#20=VALUE_REPRESENTATION_ITEM('number of views',COUNT_MEASURE(0.));
#21=SHAPE_REPRESENTATION_RELATIONSHIP('None',
'relationship between inpu1F0CA168ahsy-None and inpu1F0CA168ahsy-None',
#34,#23);
#22=SHAPE_REPRESENTATION_RELATIONSHIP('None',
'relationship between inpu1F0CA168ahsy-None and inpu1F0CA168ahsy-None',
#34,#12);
#23=ADVANCED_BREP_SHAPE_REPRESENTATION('inpu1F0CA168ahsy-None',(#48,#49),
#275);
#24=SHAPE_DEFINITION_REPRESENTATION(#25,#34);
#25=PRODUCT_DEFINITION_SHAPE('','',#26);
#26=PRODUCT_DEFINITION(' ','',#28,#27);
#27=PRODUCT_DEFINITION_CONTEXT('part definition',#33,'design');
#28=PRODUCT_DEFINITION_FORMATION_WITH_SPECIFIED_SOURCE(' ',' ',#30,
 .NOT_KNOWN.);
#29=PRODUCT_RELATED_PRODUCT_CATEGORY('part','',(#30));
#30=PRODUCT('inpu1F0CA168ahsy','inpu1F0CA168ahsy',' ',(#31));
#31=PRODUCT_CONTEXT(' ',#33,'mechanical');
#32=APPLICATION_PROTOCOL_DEFINITION('international standard',
'automotive_design',2010,#33);
#33=APPLICATION_CONTEXT(
'core data for automotive mechanical design processes');
#34=SHAPE_REPRESENTATION('inpu1F0CA168ahsy-None',(#163),#275);
#35=GEOMETRIC_CURVE_SET('None',(#218,#219,#220,#221,#129));
#36=CYLINDRICAL_SURFACE('',#180,4.7625);
#37=TOROIDAL_SURFACE('',#179,17.065625,12.7);
#38=SURFACE_STYLE_USAGE(.BOTH.,#40);
#39=SURFACE_STYLE_USAGE(.BOTH.,#41);
#40=SURFACE_SIDE_STYLE('',(#42));
#41=SURFACE_SIDE_STYLE('',(#43));
#42=SURFACE_STYLE_FILL_AREA(#44);
#43=SURFACE_STYLE_FILL_AREA(#45);
#44=FILL_AREA_STYLE('',(#46));
#45=FILL_AREA_STYLE('',(#47));
#46=FILL_AREA_STYLE_COLOUR('',#161);
#47=FILL_AREA_STYLE_COLOUR('',#162);
#48=MANIFOLD_SOLID_BREP('CUT',#50);
#49=MANIFOLD_SOLID_BREP('NOCUT',#51);
#50=CLOSED_SHELL('',(#65,#66,#67));
#51=CLOSED_SHELL('',(#68,#69,#70,#71,#72));
#52=PLANE('',#171);
#53=PLANE('',#175);
#54=PLANE('',#177);
#55=CONICAL_SURFACE('',#170,4.36562498337693,0.00500000000001271);
#56=CONICAL_SURFACE('',#174,4.7625,44.9999999999999);
#57=FACE_BOUND('',#79,.T.);
#58=FACE_BOUND('',#80,.T.);
#59=FACE_BOUND('',#82,.T.);
#60=FACE_BOUND('',#83,.T.);
#61=FACE_BOUND('',#86,.T.);
#62=FACE_BOUND('',#87,.T.);
#63=FACE_BOUND('',#88,.T.);
#64=FACE_BOUND('',#89,.T.);
#65=ADVANCED_FACE('',(#74),#73,.T.);
#66=ADVANCED_FACE('',(#57,#58),#55,.T.);
#67=ADVANCED_FACE('',(#75),#52,.F.);
#68=ADVANCED_FACE('',(#59,#60),#56,.T.);
#69=ADVANCED_FACE('',(#76),#53,.T.);
#70=ADVANCED_FACE('',(#77),#54,.T.);
#71=ADVANCED_FACE('',(#61,#62),#37,.F.);
#72=ADVANCED_FACE('',(#63,#64),#36,.T.);
#73=SPHERICAL_SURFACE('',#168,4.365625);
#74=FACE_OUTER_BOUND('',#78,.T.);
#75=FACE_OUTER_BOUND('',#81,.T.);
#76=FACE_OUTER_BOUND('',#84,.T.);
#77=FACE_OUTER_BOUND('',#85,.T.);
#78=EDGE_LOOP('',(#90));
#79=EDGE_LOOP('',(#91));
#80=EDGE_LOOP('',(#92));
#81=EDGE_LOOP('',(#93));
#82=EDGE_LOOP('',(#94));
#83=EDGE_LOOP('',(#95));
#84=EDGE_LOOP('',(#96));
#85=EDGE_LOOP('',(#97));
#86=EDGE_LOOP('',(#98));
#87=EDGE_LOOP('',(#99));
#88=EDGE_LOOP('',(#100));
#89=EDGE_LOOP('',(#101));
#90=ORIENTED_EDGE('',*,*,#108,.T.);
#91=ORIENTED_EDGE('',*,*,#109,.F.);
#92=ORIENTED_EDGE('',*,*,#108,.F.);
#93=ORIENTED_EDGE('',*,*,#109,.T.);
#94=ORIENTED_EDGE('',*,*,#110,.T.);
#95=ORIENTED_EDGE('',*,*,#111,.F.);
#96=ORIENTED_EDGE('',*,*,#110,.F.);
#97=ORIENTED_EDGE('',*,*,#112,.T.);
#98=ORIENTED_EDGE('',*,*,#113,.T.);
#99=ORIENTED_EDGE('',*,*,#112,.F.);
#100=ORIENTED_EDGE('',*,*,#111,.T.);
#101=ORIENTED_EDGE('',*,*,#113,.F.);
#102=VERTEX_POINT('',#255);
#103=VERTEX_POINT('',#258);
#104=VERTEX_POINT('',#262);
#105=VERTEX_POINT('',#264);
#106=VERTEX_POINT('',#268);
#107=VERTEX_POINT('',#271);
#108=EDGE_CURVE('',#102,#102,#114,.T.);
#109=EDGE_CURVE('',#103,#103,#115,.T.);
#110=EDGE_CURVE('',#104,#104,#116,.T.);
#111=EDGE_CURVE('',#105,#105,#117,.T.);
#112=EDGE_CURVE('',#106,#106,#118,.T.);
#113=EDGE_CURVE('',#107,#107,#119,.T.);
#114=CIRCLE('',#167,4.36562498337693);
#115=CIRCLE('',#169,4.36378942111916);
#116=CIRCLE('',#172,4.4577);
#117=CIRCLE('',#173,4.7625);
#118=CIRCLE('',#176,4.365625);
#119=CIRCLE('',#178,4.7625);
#120=CURVE_STYLE('',#125,POSITIVE_LENGTH_MEASURE(0.18),#124);
#121=CURVE_STYLE('',#126,POSITIVE_LENGTH_MEASURE(0.18),#160);
#122=CURVE_STYLE('',#127,POSITIVE_LENGTH_MEASURE(0.18),#160);
#123=CURVE_STYLE('',#128,POSITIVE_LENGTH_MEASURE(0.18),#160);
#124=DRAUGHTING_PRE_DEFINED_COLOUR('blue');
#125=DRAUGHTING_PRE_DEFINED_CURVE_FONT('continuous');
#126=DRAUGHTING_PRE_DEFINED_CURVE_FONT('continuous');
#127=DRAUGHTING_PRE_DEFINED_CURVE_FONT('continuous');
#128=DRAUGHTING_PRE_DEFINED_CURVE_FONT('continuous');
#129=B_SPLINE_CURVE_WITH_KNOTS('CUTTING PART LINE',3,(#222,#223,#224,#225,
#226,#227,#228,#229,#230,#231,#232,#233,#234,#235,#236,#237,#238,#239,#240,
#241,#242,#243,#244,#245,#246,#247,#248,#249,#250),.UNSPECIFIED.,.T.,.F.,
(1,3,3,1,1,1,1,1,1,1,1,1,1,1,1,1,1,1,1,1,1,1,3,3,1),(-0.0756870791000001,
0.,0.4405464202,0.447980520375,0.45541462055,0.462848720725,0.4702828209,
0.477716921075,0.48515102125,0.492585121425,0.5000192216,0.507453321775,
0.51488742195,0.522321522125,0.5297556223,0.537189722475,0.54462382265,
0.552057922825,0.5557749729125,0.559492023,0.561772153611875,0.74190247195,
0.9243129209,1.,1.4405464202),.UNSPECIFIED.);
#130=PRESENTATION_LAYER_ASSIGNMENT('1','Layer 1',(#218,#219,#220,#221,#129,
#164,#165,#166,#48,#49));
#131=STYLED_ITEM('',(#141),#218);
#132=STYLED_ITEM('',(#142),#219);
#133=STYLED_ITEM('',(#143),#220);
#134=STYLED_ITEM('',(#144),#221);
#135=STYLED_ITEM('',(#145),#129);
#136=STYLED_ITEM('',(#146),#164);
#137=STYLED_ITEM('',(#147),#165);
#138=STYLED_ITEM('',(#148),#166);
#139=STYLED_ITEM('',(#149),#48);
#140=STYLED_ITEM('',(#150),#49);
#141=PRESENTATION_STYLE_ASSIGNMENT((#151));
#142=PRESENTATION_STYLE_ASSIGNMENT((#152));
#143=PRESENTATION_STYLE_ASSIGNMENT((#153));
#144=PRESENTATION_STYLE_ASSIGNMENT((#154));
#145=PRESENTATION_STYLE_ASSIGNMENT((#120));
#146=PRESENTATION_STYLE_ASSIGNMENT((#121));
#147=PRESENTATION_STYLE_ASSIGNMENT((#122));
#148=PRESENTATION_STYLE_ASSIGNMENT((#123));
#149=PRESENTATION_STYLE_ASSIGNMENT((#38));
#150=PRESENTATION_STYLE_ASSIGNMENT((#39));
#151=POINT_STYLE('',#155,POSITIVE_LENGTH_MEASURE(3.),#159);
#152=POINT_STYLE('',#156,POSITIVE_LENGTH_MEASURE(3.),#160);
#153=POINT_STYLE('',#157,POSITIVE_LENGTH_MEASURE(3.),#160);
#154=POINT_STYLE('',#158,POSITIVE_LENGTH_MEASURE(3.),#160);
#155=PRE_DEFINED_POINT_MARKER_SYMBOL('plus');
#156=PRE_DEFINED_POINT_MARKER_SYMBOL('plus');
#157=PRE_DEFINED_POINT_MARKER_SYMBOL('plus');
#158=PRE_DEFINED_POINT_MARKER_SYMBOL('plus');
#159=COLOUR_RGB('Pale Royal',0.219592584115358,0.470572976272221,0.752941176470588);
#160=COLOUR_RGB('Pale Maroon',0.811749446860456,0.603921568627451,0.611749446860456);
#161=COLOUR_RGB('Light Gray',0.8,0.8,0.8);
#162=COLOUR_RGB('Medium Gray',0.490196078431373,0.490196078431373,0.490196078431373);
#163=AXIS2_PLACEMENT_3D('',#217,#181,#182);
#164=AXIS2_PLACEMENT_3D('MCS',#251,#183,#184);
#165=AXIS2_PLACEMENT_3D('CIP',#252,#185,#186);
#166=AXIS2_PLACEMENT_3D('PCS',#253,#187,#188);
#167=AXIS2_PLACEMENT_3D('',#254,#189,#190);
#168=AXIS2_PLACEMENT_3D('',#256,#191,#192);
#169=AXIS2_PLACEMENT_3D('',#257,#193,#194);
#170=AXIS2_PLACEMENT_3D('',#259,#195,#196);
#171=AXIS2_PLACEMENT_3D('',#260,#197,#198);
#172=AXIS2_PLACEMENT_3D('',#261,#199,#200);
#173=AXIS2_PLACEMENT_3D('',#263,#201,#202);
#174=AXIS2_PLACEMENT_3D('',#265,#203,#204);
#175=AXIS2_PLACEMENT_3D('',#266,#205,#206);
#176=AXIS2_PLACEMENT_3D('',#267,#207,#208);
#177=AXIS2_PLACEMENT_3D('',#269,#209,#210);
#178=AXIS2_PLACEMENT_3D('',#270,#211,#212);
#179=AXIS2_PLACEMENT_3D('',#272,#213,#214);
#180=AXIS2_PLACEMENT_3D('',#273,#215,#216);
#181=DIRECTION('',(0.,0.,1.));
#182=DIRECTION('',(1.,0.,0.));
#183=DIRECTION('',(0.,0.,1.));
#184=DIRECTION('',(1.,0.,0.));
#185=DIRECTION('',(0.,0.,1.));
#186=DIRECTION('',(1.,0.,0.));
#187=DIRECTION('',(0.,0.,1.));
#188=DIRECTION('',(1.,0.,0.));
#189=DIRECTION('',(0.,0.,-1.));
#190=DIRECTION('',(-1.,0.,0.));
#191=DIRECTION('',(-9.86076131526265E-32,0.,-1.));
#192=DIRECTION('',(1.,0.,0.));
#193=DIRECTION('',(0.,0.,1.));
#194=DIRECTION('',(-1.,0.,0.));
#195=DIRECTION('',(0.,0.,-1.));
#196=DIRECTION('',(1.,0.,1.24663158538594E-14));
#197=DIRECTION('',(0.,0.,-1.));
#198=DIRECTION('',(1.,0.,0.));
#199=DIRECTION('',(0.,0.,-1.));
#200=DIRECTION('',(-1.,0.,0.));
#201=DIRECTION('',(0.,0.,-1.));
#202=DIRECTION('',(-1.,0.,0.));
#203=DIRECTION('',(0.,0.,-1.));
#204=DIRECTION('',(1.,0.,-1.03482154580172E-16));
#205=DIRECTION('',(0.,0.,1.));
#206=DIRECTION('',(-1.,0.,0.));
#207=DIRECTION('',(0.,0.,-1.));
#208=DIRECTION('',(-1.,0.,0.));
#209=DIRECTION('',(0.,0.,-1.));
#210=DIRECTION('',(1.,0.,0.));
#211=DIRECTION('',(0.,0.,-1.));
#212=DIRECTION('',(-1.,0.,0.));
#213=DIRECTION('',(0.,0.,-1.));
#214=DIRECTION('',(1.,0.,0.));
#215=DIRECTION('',(0.,0.,-1.));
#216=DIRECTION('',(1.,0.,0.));
#217=CARTESIAN_POINT('',(0.,0.,0.));
#218=CARTESIAN_POINT('CRP',(-4.365625,0.,-63.5));
#219=CARTESIAN_POINT('',(0.,0.,-34.9499023452637));
#220=CARTESIAN_POINT('',(0.,0.,-63.5));
#221=CARTESIAN_POINT('',(0.,0.,0.));
#222=CARTESIAN_POINT('',(0.,0.,-38.1));
#223=CARTESIAN_POINT('',(0.,0.,-46.5666666666667));
#224=CARTESIAN_POINT('',(4.45529056877309E-17,0.,-55.0333333333333));
#225=CARTESIAN_POINT('',(1.33658717063193E-16,0.,-63.5));
#226=CARTESIAN_POINT('',(-0.142872680975307,0.,-63.5));
#227=CARTESIAN_POINT('',(-0.428617820704712,0.,-63.4859614494527));
#228=CARTESIAN_POINT('',(-0.853107361307277,0.,-63.4229908359269));
#229=CARTESIAN_POINT('',(-1.2693800952444,0.,-63.3187139008361));
#230=CARTESIAN_POINT('',(-1.67342665392001,0.,-63.1741350413904));
#231=CARTESIAN_POINT('',(-2.06135540162472,0.,-62.990646745022));
#232=CARTESIAN_POINT('',(-2.42942997615049,0.,-62.7700163394315));
#233=CARTESIAN_POINT('',(-2.77410520204759,0.,-62.5143688152807));
#234=CARTESIAN_POINT('',(-3.09206132666369,0.,-62.2261665049901));
#235=CARTESIAN_POINT('',(-3.38023588840554,0.,-61.9081852317984));
#236=CARTESIAN_POINT('',(-3.63585333325929,0.,-61.5634876974902));
#237=CARTESIAN_POINT('',(-3.85645161743748,0.,-61.1953938707694));
#238=CARTESIAN_POINT('',(-4.03990605999718,0.,-60.8074491120688));
#239=CARTESIAN_POINT('',(-4.18444965922938,0.,-60.4033899379467));
#240=CARTESIAN_POINT('',(-4.28869026732118,0.,-59.9871081054738));
#241=CARTESIAN_POINT('',(-4.34113490862751,0.,-59.6333622433907));
#242=CARTESIAN_POINT('',(-4.36213404774999,0.,-59.3483032985793));
#243=CARTESIAN_POINT('',(-4.36616561795162,0.,-59.1616095082462));
#244=CARTESIAN_POINT('',(-4.36531523224593,0.,-55.5845075352344));
#245=CARTESIAN_POINT('',(-4.36470337816001,0.,-48.5731761927845));
#246=CARTESIAN_POINT('',(-4.36409534816212,0.,-41.605665671225));
#247=CARTESIAN_POINT('',(-4.36378942111916,0.,-38.1));
#248=CARTESIAN_POINT('',(-2.90919294741277,0.,-38.1));
#249=CARTESIAN_POINT('',(-1.45459647370639,0.,-38.1));
#250=CARTESIAN_POINT('',(0.,0.,-38.1));
#251=CARTESIAN_POINT('',(0.,0.,-34.9499023452637));
#252=CARTESIAN_POINT('',(0.,0.,-63.5));
#253=CARTESIAN_POINT('',(0.,0.,0.));
#254=CARTESIAN_POINT('',(0.,0.,-59.1339940273497));
#255=CARTESIAN_POINT('',(-4.36562498337693,0.,-59.1339940273497));
#256=CARTESIAN_POINT('',(0.,0.,-59.134375));
#257=CARTESIAN_POINT('',(0.,0.,-38.1));
#258=CARTESIAN_POINT('',(-4.36378942111916,0.,-38.1));
#259=CARTESIAN_POINT('',(0.,0.,-59.1339940273497));
#260=CARTESIAN_POINT('',(0.,0.,-38.1));
#261=CARTESIAN_POINT('',(0.,0.,0.));
#262=CARTESIAN_POINT('',(-4.4577,0.,0.));
#263=CARTESIAN_POINT('',(0.,0.,-0.304800000000001));
#264=CARTESIAN_POINT('',(-4.7625,0.,-0.304800000000001));
#265=CARTESIAN_POINT('',(0.,0.,-0.304800000000001));
#266=CARTESIAN_POINT('',(4.4577,0.,3.31837406576684E-17));
#267=CARTESIAN_POINT('',(0.,0.,-38.0999998398155));
#268=CARTESIAN_POINT('',(-4.365625,0.,-38.0999998398155));
#269=CARTESIAN_POINT('',(4.36378942111916,0.,-38.0999999199078));
#270=CARTESIAN_POINT('',(0.,0.,-34.9499023452637));
#271=CARTESIAN_POINT('',(-4.7625,0.,-34.9499023452637));
#272=CARTESIAN_POINT('',(0.,0.,-38.1));
#273=CARTESIAN_POINT('',(0.,0.,-39.69));
#274=MECHANICAL_DESIGN_GEOMETRIC_PRESENTATION_REPRESENTATION('',(#131,#132,
#133,#134,#135,#136,#137,#138,#139,#140),#275);
#275=(
GEOMETRIC_REPRESENTATION_CONTEXT(3)
GLOBAL_UNCERTAINTY_ASSIGNED_CONTEXT((#276))
GLOBAL_UNIT_ASSIGNED_CONTEXT((#282,#278,#277))
REPRESENTATION_CONTEXT('C5341-.344F3B','TOP_LEVEL_ASSEMBLY_PART')
);
#276=UNCERTAINTY_MEASURE_WITH_UNIT(LENGTH_MEASURE(2.E-5),#282,
'DISTANCE_ACCURACY_VALUE','Maximum Tolerance applied to model');
#277=(
NAMED_UNIT(*)
SI_UNIT($,.STERADIAN.)
SOLID_ANGLE_UNIT()
);
#278=(
CONVERSION_BASED_UNIT('DEGREE',#280)
NAMED_UNIT(#279)
PLANE_ANGLE_UNIT()
);
#279=DIMENSIONAL_EXPONENTS(0.,0.,0.,0.,0.,0.,0.);
#280=PLANE_ANGLE_MEASURE_WITH_UNIT(PLANE_ANGLE_MEASURE(0.0174532925),#281);
#281=(
NAMED_UNIT(*)
PLANE_ANGLE_UNIT()
SI_UNIT($,.RADIAN.)
);
#282=(
LENGTH_UNIT()
NAMED_UNIT(*)
SI_UNIT(.MILLI.,.METRE.)
);
ENDSEC;
END-ISO-10303-21;
