ISO-10303-21;
HEADER;
/* Generated by software containing ST-Developer
 * from STEP Tools, Inc. (www.steptools.com) 
 */
/* OPTION: using custom schema-name function */

FILE_DESCRIPTION(
/* description */ (''),
/* implementation_level */ '2;1');

FILE_NAME(
/* name */ 'C5341-.406F2B.0Z4_Basic.stp',
/* time_stamp */ '2024-08-16T10:44:00+05:00',
/* author */ (''),
/* organization */ (''),
/* preprocessor_version */ 'ST-DEVELOPER v16.7',
/* originating_system */ 'SIEMENS PLM Software NX 12.0',
/* authorisation */ '');

FILE_SCHEMA (('AUTOMOTIVE_DESIGN { 1 0 10303 214 3 1 1 1 }'));
ENDSEC;

DATA;
#10=CONSTRUCTIVE_GEOMETRY_REPRESENTATION_RELATIONSHIP(
'supplemental geometry','',#34,#11);
#11=CONSTRUCTIVE_GEOMETRY_REPRESENTATION('supplemental geometry',(#164,
#165,#166),#275);
#12=GEOMETRICALLY_BOUNDED_WIREFRAME_SHAPE_REPRESENTATION(
'inpu1F0CA168ahtq-None',(#35),#275);
#13=PROPERTY_DEFINITION_REPRESENTATION(#17,#15);
#14=PROPERTY_DEFINITION_REPRESENTATION(#18,#16);
#15=REPRESENTATION('',(#19),#275);
#16=REPRESENTATION('',(#20),#275);
#17=PROPERTY_DEFINITION('pmi validation property','',#25);
#18=PROPERTY_DEFINITION('pmi validation property','',#25);
#19=VALUE_REPRESENTATION_ITEM('number of annotations',COUNT_MEASURE(0.));
#20=VALUE_REPRESENTATION_ITEM('number of views',COUNT_MEASURE(0.));
#21=SHAPE_REPRESENTATION_RELATIONSHIP('None',
'relationship between inpu1F0CA168ahtq-None and inpu1F0CA168ahtq-None',
#34,#23);
#22=SHAPE_REPRESENTATION_RELATIONSHIP('None',
'relationship between inpu1F0CA168ahtq-None and inpu1F0CA168ahtq-None',
#34,#12);
#23=ADVANCED_BREP_SHAPE_REPRESENTATION('inpu1F0CA168ahtq-None',(#48,#49),
#275);
#24=SHAPE_DEFINITION_REPRESENTATION(#25,#34);
#25=PRODUCT_DEFINITION_SHAPE('','',#26);
#26=PRODUCT_DEFINITION(' ','',#28,#27);
#27=PRODUCT_DEFINITION_CONTEXT('part definition',#33,'design');
#28=PRODUCT_DEFINITION_FORMATION_WITH_SPECIFIED_SOURCE(' ',' ',#30,
 .NOT_KNOWN.);
#29=PRODUCT_RELATED_PRODUCT_CATEGORY('part','',(#30));
#30=PRODUCT('inpu1F0CA168ahtq','inpu1F0CA168ahtq',' ',(#31));
#31=PRODUCT_CONTEXT(' ',#33,'mechanical');
#32=APPLICATION_PROTOCOL_DEFINITION('international standard',
'automotive_design',2010,#33);
#33=APPLICATION_CONTEXT(
'core data for automotive mechanical design processes');
#34=SHAPE_REPRESENTATION('inpu1F0CA168ahtq-None',(#163),#275);
#35=GEOMETRIC_CURVE_SET('None',(#218,#219,#220,#221,#129));
#36=CYLINDRICAL_SURFACE('',#180,5.55625);
#37=TOROIDAL_SURFACE('',#179,17.859375,12.7);
#38=SURFACE_STYLE_USAGE(.BOTH.,#40);
#39=SURFACE_STYLE_USAGE(.BOTH.,#41);
#40=SURFACE_SIDE_STYLE('',(#42));
#41=SURFACE_SIDE_STYLE('',(#43));
#42=SURFACE_STYLE_FILL_AREA(#44);
#43=SURFACE_STYLE_FILL_AREA(#45);
#44=FILL_AREA_STYLE('',(#46));
#45=FILL_AREA_STYLE('',(#47));
#46=FILL_AREA_STYLE_COLOUR('',#161);
#47=FILL_AREA_STYLE_COLOUR('',#162);
#48=MANIFOLD_SOLID_BREP('CUT',#50);
#49=MANIFOLD_SOLID_BREP('NOCUT',#51);
#50=CLOSED_SHELL('',(#65,#66,#67));
#51=CLOSED_SHELL('',(#68,#69,#70,#71,#72));
#52=PLANE('',#171);
#53=PLANE('',#175);
#54=PLANE('',#177);
#55=CONICAL_SURFACE('',#170,5.15937498035455,0.00499999999999711);
#56=CONICAL_SURFACE('',#174,5.55625,44.9999999999999);
#57=FACE_BOUND('',#79,.T.);
#58=FACE_BOUND('',#80,.T.);
#59=FACE_BOUND('',#82,.T.);
#60=FACE_BOUND('',#83,.T.);
#61=FACE_BOUND('',#86,.T.);
#62=FACE_BOUND('',#87,.T.);
#63=FACE_BOUND('',#88,.T.);
#64=FACE_BOUND('',#89,.T.);
#65=ADVANCED_FACE('',(#74),#73,.T.);
#66=ADVANCED_FACE('',(#57,#58),#55,.T.);
#67=ADVANCED_FACE('',(#75),#52,.F.);
#68=ADVANCED_FACE('',(#59,#60),#56,.T.);
#69=ADVANCED_FACE('',(#76),#53,.T.);
#70=ADVANCED_FACE('',(#77),#54,.T.);
#71=ADVANCED_FACE('',(#61,#62),#37,.F.);
#72=ADVANCED_FACE('',(#63,#64),#36,.T.);
#73=SPHERICAL_SURFACE('',#168,5.159375);
#74=FACE_OUTER_BOUND('',#78,.T.);
#75=FACE_OUTER_BOUND('',#81,.T.);
#76=FACE_OUTER_BOUND('',#84,.T.);
#77=FACE_OUTER_BOUND('',#85,.T.);
#78=EDGE_LOOP('',(#90));
#79=EDGE_LOOP('',(#91));
#80=EDGE_LOOP('',(#92));
#81=EDGE_LOOP('',(#93));
#82=EDGE_LOOP('',(#94));
#83=EDGE_LOOP('',(#95));
#84=EDGE_LOOP('',(#96));
#85=EDGE_LOOP('',(#97));
#86=EDGE_LOOP('',(#98));
#87=EDGE_LOOP('',(#99));
#88=EDGE_LOOP('',(#100));
#89=EDGE_LOOP('',(#101));
#90=ORIENTED_EDGE('',*,*,#108,.T.);
#91=ORIENTED_EDGE('',*,*,#109,.F.);
#92=ORIENTED_EDGE('',*,*,#108,.F.);
#93=ORIENTED_EDGE('',*,*,#109,.T.);
#94=ORIENTED_EDGE('',*,*,#110,.T.);
#95=ORIENTED_EDGE('',*,*,#111,.F.);
#96=ORIENTED_EDGE('',*,*,#110,.F.);
#97=ORIENTED_EDGE('',*,*,#112,.T.);
#98=ORIENTED_EDGE('',*,*,#113,.T.);
#99=ORIENTED_EDGE('',*,*,#112,.F.);
#100=ORIENTED_EDGE('',*,*,#111,.T.);
#101=ORIENTED_EDGE('',*,*,#113,.F.);
#102=VERTEX_POINT('',#255);
#103=VERTEX_POINT('',#258);
#104=VERTEX_POINT('',#262);
#105=VERTEX_POINT('',#264);
#106=VERTEX_POINT('',#268);
#107=VERTEX_POINT('',#271);
#108=EDGE_CURVE('',#102,#102,#114,.T.);
#109=EDGE_CURVE('',#103,#103,#115,.T.);
#110=EDGE_CURVE('',#104,#104,#116,.T.);
#111=EDGE_CURVE('',#105,#105,#117,.T.);
#112=EDGE_CURVE('',#106,#106,#118,.T.);
#113=EDGE_CURVE('',#107,#107,#119,.T.);
#114=CIRCLE('',#167,5.15937498035455);
#115=CIRCLE('',#169,5.1576086918964);
#116=CIRCLE('',#172,4.94665);
#117=CIRCLE('',#173,5.55625);
#118=CIRCLE('',#176,5.15937499999999);
#119=CIRCLE('',#178,5.55625);
#120=CURVE_STYLE('',#125,POSITIVE_LENGTH_MEASURE(0.18),#124);
#121=CURVE_STYLE('',#126,POSITIVE_LENGTH_MEASURE(0.18),#160);
#122=CURVE_STYLE('',#127,POSITIVE_LENGTH_MEASURE(0.18),#160);
#123=CURVE_STYLE('',#128,POSITIVE_LENGTH_MEASURE(0.18),#160);
#124=DRAUGHTING_PRE_DEFINED_COLOUR('blue');
#125=DRAUGHTING_PRE_DEFINED_CURVE_FONT('continuous');
#126=DRAUGHTING_PRE_DEFINED_CURVE_FONT('continuous');
#127=DRAUGHTING_PRE_DEFINED_CURVE_FONT('continuous');
#128=DRAUGHTING_PRE_DEFINED_CURVE_FONT('continuous');
#129=B_SPLINE_CURVE_WITH_KNOTS('CUTTING PART LINE',3,(#222,#223,#224,#225,
#226,#227,#228,#229,#230,#231,#232,#233,#234,#235,#236,#237,#238,#239,#240,
#241,#242,#243,#244,#245,#246,#247,#248,#249,#250),.UNSPECIFIED.,.T.,.F.,
(1,3,3,1,1,1,1,1,1,1,1,1,1,1,1,1,1,1,1,1,1,1,3,3,1),(-0.0875617053,0.,0.4312206386,
0.4398204106125,0.448420182625,0.4570199546375,0.46561972665,0.4742194986625,
0.482819270675,0.4914190426875,0.5000188147,0.5086185867125,0.517218358725,
0.5258181307375,0.53441790275,0.5430176747625,0.551617446775,0.5602172187875,
0.56451710479375,0.5688169908,0.570964623949375,0.74062764275,0.9124382947,
1.,1.4312206386),.UNSPECIFIED.);
#130=PRESENTATION_LAYER_ASSIGNMENT('1','Layer 1',(#218,#219,#220,#221,#129,
#164,#165,#166,#48,#49));
#131=STYLED_ITEM('',(#141),#218);
#132=STYLED_ITEM('',(#142),#219);
#133=STYLED_ITEM('',(#143),#220);
#134=STYLED_ITEM('',(#144),#221);
#135=STYLED_ITEM('',(#145),#129);
#136=STYLED_ITEM('',(#146),#164);
#137=STYLED_ITEM('',(#147),#165);
#138=STYLED_ITEM('',(#148),#166);
#139=STYLED_ITEM('',(#149),#48);
#140=STYLED_ITEM('',(#150),#49);
#141=PRESENTATION_STYLE_ASSIGNMENT((#151));
#142=PRESENTATION_STYLE_ASSIGNMENT((#152));
#143=PRESENTATION_STYLE_ASSIGNMENT((#153));
#144=PRESENTATION_STYLE_ASSIGNMENT((#154));
#145=PRESENTATION_STYLE_ASSIGNMENT((#120));
#146=PRESENTATION_STYLE_ASSIGNMENT((#121));
#147=PRESENTATION_STYLE_ASSIGNMENT((#122));
#148=PRESENTATION_STYLE_ASSIGNMENT((#123));
#149=PRESENTATION_STYLE_ASSIGNMENT((#38));
#150=PRESENTATION_STYLE_ASSIGNMENT((#39));
#151=POINT_STYLE('',#155,POSITIVE_LENGTH_MEASURE(3.),#159);
#152=POINT_STYLE('',#156,POSITIVE_LENGTH_MEASURE(3.),#160);
#153=POINT_STYLE('',#157,POSITIVE_LENGTH_MEASURE(3.),#160);
#154=POINT_STYLE('',#158,POSITIVE_LENGTH_MEASURE(3.),#160);
#155=PRE_DEFINED_POINT_MARKER_SYMBOL('plus');
#156=PRE_DEFINED_POINT_MARKER_SYMBOL('plus');
#157=PRE_DEFINED_POINT_MARKER_SYMBOL('plus');
#158=PRE_DEFINED_POINT_MARKER_SYMBOL('plus');
#159=COLOUR_RGB('Pale Royal',0.219592584115358,0.470572976272221,0.752941176470588);
#160=COLOUR_RGB('Pale Maroon',0.811749446860456,0.603921568627451,0.611749446860456);
#161=COLOUR_RGB('Light Gray',0.8,0.8,0.8);
#162=COLOUR_RGB('Medium Gray',0.490196078431373,0.490196078431373,0.490196078431373);
#163=AXIS2_PLACEMENT_3D('',#217,#181,#182);
#164=AXIS2_PLACEMENT_3D('MCS',#251,#183,#184);
#165=AXIS2_PLACEMENT_3D('CIP',#252,#185,#186);
#166=AXIS2_PLACEMENT_3D('PCS',#253,#187,#188);
#167=AXIS2_PLACEMENT_3D('',#254,#189,#190);
#168=AXIS2_PLACEMENT_3D('',#256,#191,#192);
#169=AXIS2_PLACEMENT_3D('',#257,#193,#194);
#170=AXIS2_PLACEMENT_3D('',#259,#195,#196);
#171=AXIS2_PLACEMENT_3D('',#260,#197,#198);
#172=AXIS2_PLACEMENT_3D('',#261,#199,#200);
#173=AXIS2_PLACEMENT_3D('',#263,#201,#202);
#174=AXIS2_PLACEMENT_3D('',#265,#203,#204);
#175=AXIS2_PLACEMENT_3D('',#266,#205,#206);
#176=AXIS2_PLACEMENT_3D('',#267,#207,#208);
#177=AXIS2_PLACEMENT_3D('',#269,#209,#210);
#178=AXIS2_PLACEMENT_3D('',#270,#211,#212);
#179=AXIS2_PLACEMENT_3D('',#272,#213,#214);
#180=AXIS2_PLACEMENT_3D('',#273,#215,#216);
#181=DIRECTION('',(0.,0.,1.));
#182=DIRECTION('',(1.,0.,0.));
#183=DIRECTION('',(0.,0.,1.));
#184=DIRECTION('',(1.,0.,0.));
#185=DIRECTION('',(0.,0.,1.));
#186=DIRECTION('',(1.,0.,0.));
#187=DIRECTION('',(0.,0.,1.));
#188=DIRECTION('',(1.,0.,0.));
#189=DIRECTION('',(0.,0.,-1.));
#190=DIRECTION('',(-1.,0.,0.));
#191=DIRECTION('',(-9.86076131526265E-32,0.,-0.999999999999999));
#192=DIRECTION('',(1.,0.,0.));
#193=DIRECTION('',(0.,0.,1.));
#194=DIRECTION('',(-1.,0.,0.));
#195=DIRECTION('',(0.,0.,-1.));
#196=DIRECTION('',(1.,0.,-1.05803211125587E-14));
#197=DIRECTION('',(0.,0.,-1.));
#198=DIRECTION('',(1.,0.,0.));
#199=DIRECTION('',(0.,0.,-1.));
#200=DIRECTION('',(-1.,0.,0.));
#201=DIRECTION('',(0.,0.,-1.));
#202=DIRECTION('',(-1.,0.,0.));
#203=DIRECTION('',(0.,0.,-1.));
#204=DIRECTION('',(1.,0.,1.40167476879703E-17));
#205=DIRECTION('',(0.,0.,1.));
#206=DIRECTION('',(-1.,0.,0.));
#207=DIRECTION('',(0.,0.,-1.));
#208=DIRECTION('',(-1.,0.,0.));
#209=DIRECTION('',(0.,0.,-1.));
#210=DIRECTION('',(1.,0.,0.));
#211=DIRECTION('',(0.,0.,-1.));
#212=DIRECTION('',(-1.,0.,0.));
#213=DIRECTION('',(0.,0.,-1.));
#214=DIRECTION('',(1.,0.,0.));
#215=DIRECTION('',(0.,0.,-1.));
#216=DIRECTION('',(1.,0.,0.));
#217=CARTESIAN_POINT('',(0.,0.,0.));
#218=CARTESIAN_POINT('CRP',(-5.159375,0.,-69.85));
#219=CARTESIAN_POINT('',(0.,0.,-41.2999023452637));
#220=CARTESIAN_POINT('',(0.,0.,-69.85));
#221=CARTESIAN_POINT('',(0.,0.,0.));
#222=CARTESIAN_POINT('',(0.,0.,-44.45));
#223=CARTESIAN_POINT('',(0.,0.,-52.9166666666667));
#224=CARTESIAN_POINT('',(5.2653433994591E-17,0.,-61.3833333333333));
#225=CARTESIAN_POINT('',(1.57960301983773E-16,0.,-69.85));
#226=CARTESIAN_POINT('',(-0.168849532061727,0.,-69.85));
#227=CARTESIAN_POINT('',(-0.506548333560114,0.,-69.8334089857168));
#228=CARTESIAN_POINT('',(-1.00821779063587,0.,-69.7589891697318));
#229=CARTESIAN_POINT('',(-1.50017647619793,0.,-69.6357527918973));
#230=CARTESIAN_POINT('',(-1.97768604554183,0.,-69.4648868670977));
#231=CARTESIAN_POINT('',(-2.43614729282922,0.,-69.2480370622987));
#232=CARTESIAN_POINT('',(-2.87114451726876,0.,-68.98729203751));
#233=CARTESIAN_POINT('',(-3.27848796605624,0.,-68.6851631453317));
#234=CARTESIAN_POINT('',(-3.654254295148,0.,-68.3445604149883));
#235=CARTESIAN_POINT('',(-3.99482423175201,0.,-67.9687643648526));
#236=CARTESIAN_POINT('',(-4.29691757567007,0.,-67.5613945515794));
#237=CARTESIAN_POINT('',(-4.55762463878975,0.,-67.1263745745456));
#238=CARTESIAN_POINT('',(-4.77443443454213,0.,-66.6678944051722));
#239=CARTESIAN_POINT('',(-4.94525868818019,0.,-66.1903699266643));
#240=CARTESIAN_POINT('',(-5.06845213410685,0.,-65.6984004882872));
#241=CARTESIAN_POINT('',(-5.13043216474161,0.,-65.2803371967344));
#242=CARTESIAN_POINT('',(-5.15524932915907,0.,-64.9434493528664));
#243=CARTESIAN_POINT('',(-5.15989658019861,0.,-64.7324324575694));
#244=CARTESIAN_POINT('',(-5.15907691917724,0.,-61.2746452689134));
#245=CARTESIAN_POINT('',(-5.15848815635786,0.,-54.5279203490484));
#246=CARTESIAN_POINT('',(-5.15790307330609,0.,-47.8233624599325));
#247=CARTESIAN_POINT('',(-5.1576086918964,0.,-44.45));
#248=CARTESIAN_POINT('',(-3.4384057945976,0.,-44.45));
#249=CARTESIAN_POINT('',(-1.7192028972988,0.,-44.45));
#250=CARTESIAN_POINT('',(0.,0.,-44.45));
#251=CARTESIAN_POINT('',(0.,0.,-41.2999023452637));
#252=CARTESIAN_POINT('',(0.,0.,-69.85));
#253=CARTESIAN_POINT('',(0.,0.,0.));
#254=CARTESIAN_POINT('',(0.,0.,-64.6901747595951));
#255=CARTESIAN_POINT('',(-5.15937498035455,0.,-64.6901747595951));
#256=CARTESIAN_POINT('',(0.,0.,-64.690625));
#257=CARTESIAN_POINT('',(0.,0.,-44.45));
#258=CARTESIAN_POINT('',(-5.1576086918964,0.,-44.45));
#259=CARTESIAN_POINT('',(0.,0.,-64.6901747595951));
#260=CARTESIAN_POINT('',(0.,0.,-44.45));
#261=CARTESIAN_POINT('',(0.,0.,0.));
#262=CARTESIAN_POINT('',(-4.94665,0.,0.));
#263=CARTESIAN_POINT('',(0.,0.,-0.609600000000002));
#264=CARTESIAN_POINT('',(-5.55625,0.,-0.609600000000002));
#265=CARTESIAN_POINT('',(0.,0.,-0.609600000000002));
#266=CARTESIAN_POINT('',(4.94665,0.,8.86948918889262E-17));
#267=CARTESIAN_POINT('',(0.,0.,-44.4499998458605));
#268=CARTESIAN_POINT('',(-5.15937499999999,0.,-44.4499998458605));
#269=CARTESIAN_POINT('',(5.1576086918964,0.,-44.4499999229303));
#270=CARTESIAN_POINT('',(0.,0.,-41.2999023452637));
#271=CARTESIAN_POINT('',(-5.55625,0.,-41.2999023452637));
#272=CARTESIAN_POINT('',(0.,0.,-44.45));
#273=CARTESIAN_POINT('',(0.,0.,-45.));
#274=MECHANICAL_DESIGN_GEOMETRIC_PRESENTATION_REPRESENTATION('',(#131,#132,
#133,#134,#135,#136,#137,#138,#139,#140),#275);
#275=(
GEOMETRIC_REPRESENTATION_CONTEXT(3)
GLOBAL_UNCERTAINTY_ASSIGNED_CONTEXT((#276))
GLOBAL_UNIT_ASSIGNED_CONTEXT((#282,#278,#277))
REPRESENTATION_CONTEXT('C5341-.406F2B','TOP_LEVEL_ASSEMBLY_PART')
);
#276=UNCERTAINTY_MEASURE_WITH_UNIT(LENGTH_MEASURE(2.E-5),#282,
'DISTANCE_ACCURACY_VALUE','Maximum Tolerance applied to model');
#277=(
NAMED_UNIT(*)
SI_UNIT($,.STERADIAN.)
SOLID_ANGLE_UNIT()
);
#278=(
CONVERSION_BASED_UNIT('DEGREE',#280)
NAMED_UNIT(#279)
PLANE_ANGLE_UNIT()
);
#279=DIMENSIONAL_EXPONENTS(0.,0.,0.,0.,0.,0.,0.);
#280=PLANE_ANGLE_MEASURE_WITH_UNIT(PLANE_ANGLE_MEASURE(0.0174532925),#281);
#281=(
NAMED_UNIT(*)
PLANE_ANGLE_UNIT()
SI_UNIT($,.RADIAN.)
);
#282=(
LENGTH_UNIT()
NAMED_UNIT(*)
SI_UNIT(.MILLI.,.METRE.)
);
ENDSEC;
END-ISO-10303-21;
