ISO-10303-21;
HEADER;
/* Generated by software containing ST-Developer
 * from STEP Tools, Inc. (www.steptools.com) 
 */
/* OPTION: using custom schema-name function */

FILE_DESCRIPTION(
/* description */ (''),
/* implementation_level */ '2;1');

FILE_NAME(
/* name */ 'C5341-.469F2B.0Z4_Basic.stp',
/* time_stamp */ '2024-08-14T16:28:12+06:00',
/* author */ (''),
/* organization */ (''),
/* preprocessor_version */ 'ST-DEVELOPER v18.102',
/* originating_system */ 'SIEMENS PLM Software NX2206.8101',
/* authorisation */ '');

FILE_SCHEMA (('AUTOMOTIVE_DESIGN { 1 0 10303 214 3 1 1 1 }'));
ENDSEC;

DATA;
#10=CONSTRUCTIVE_GEOMETRY_REPRESENTATION_RELATIONSHIP(
'supplemental geometry','',#34,#11);
#11=CONSTRUCTIVE_GEOMETRY_REPRESENTATION('supplemental geometry',(#152,
#153,#154),#260);
#12=GEOMETRICALLY_BOUNDED_WIREFRAME_SHAPE_REPRESENTATION(
'inpu2C509F527fwe-None',(#35),#260);
#13=PROPERTY_DEFINITION_REPRESENTATION(#17,#15);
#14=PROPERTY_DEFINITION_REPRESENTATION(#18,#16);
#15=REPRESENTATION('',(#19),#260);
#16=REPRESENTATION('',(#20),#260);
#17=PROPERTY_DEFINITION('pmi validation property','',#25);
#18=PROPERTY_DEFINITION('pmi validation property','',#25);
#19=VALUE_REPRESENTATION_ITEM('number of annotations',COUNT_MEASURE(0.));
#20=VALUE_REPRESENTATION_ITEM('number of views',COUNT_MEASURE(0.));
#21=SHAPE_REPRESENTATION_RELATIONSHIP('None',
'relationship between inpu2C509F527fwe-None and inpu2C509F527fwe-None',
#34,#23);
#22=SHAPE_REPRESENTATION_RELATIONSHIP('None',
'relationship between inpu2C509F527fwe-None and inpu2C509F527fwe-None',
#34,#12);
#23=ADVANCED_BREP_SHAPE_REPRESENTATION('inpu2C509F527fwe-None',(#48,#49),
#260);
#24=SHAPE_DEFINITION_REPRESENTATION(#25,#34);
#25=PRODUCT_DEFINITION_SHAPE('','',#26);
#26=PRODUCT_DEFINITION(' ','',#28,#27);
#27=PRODUCT_DEFINITION_CONTEXT('part definition',#33,'design');
#28=PRODUCT_DEFINITION_FORMATION_WITH_SPECIFIED_SOURCE(' ',' ',#30,
 .NOT_KNOWN.);
#29=PRODUCT_RELATED_PRODUCT_CATEGORY('part','',(#30));
#30=PRODUCT('inpu2C509F527fwe','inpu2C509F527fwe',' ',(#31));
#31=PRODUCT_CONTEXT(' ',#33,'mechanical');
#32=APPLICATION_PROTOCOL_DEFINITION('international standard',
'automotive_design',2010,#33);
#33=APPLICATION_CONTEXT(
'core data for automotive mechanical design processes');
#34=SHAPE_REPRESENTATION('inpu2C509F527fwe-None',(#151),#260);
#35=GEOMETRIC_CURVE_SET('None',(#206,#129));
#36=CYLINDRICAL_SURFACE('',#168,6.35);
#37=TOROIDAL_SURFACE('',#167,18.653125,12.7);
#38=SURFACE_STYLE_USAGE(.BOTH.,#40);
#39=SURFACE_STYLE_USAGE(.BOTH.,#41);
#40=SURFACE_SIDE_STYLE('',(#42));
#41=SURFACE_SIDE_STYLE('',(#43));
#42=SURFACE_STYLE_FILL_AREA(#44);
#43=SURFACE_STYLE_FILL_AREA(#45);
#44=FILL_AREA_STYLE('',(#46));
#45=FILL_AREA_STYLE('',(#47));
#46=FILL_AREA_STYLE_COLOUR('',#149);
#47=FILL_AREA_STYLE_COLOUR('',#150);
#48=MANIFOLD_SOLID_BREP('CUT',#50);
#49=MANIFOLD_SOLID_BREP('NOCUT',#51);
#50=CLOSED_SHELL('',(#65,#66,#67));
#51=CLOSED_SHELL('',(#68,#69,#70,#71,#72));
#52=PLANE('',#159);
#53=PLANE('',#163);
#54=PLANE('',#165);
#55=CONICAL_SURFACE('',#158,5.95312497733218,0.00500000000000581);
#56=CONICAL_SURFACE('',#162,6.35,44.9999999999999);
#57=FACE_BOUND('',#79,.T.);
#58=FACE_BOUND('',#80,.T.);
#59=FACE_BOUND('',#82,.T.);
#60=FACE_BOUND('',#83,.T.);
#61=FACE_BOUND('',#86,.T.);
#62=FACE_BOUND('',#87,.T.);
#63=FACE_BOUND('',#88,.T.);
#64=FACE_BOUND('',#89,.T.);
#65=ADVANCED_FACE('',(#74),#73,.T.);
#66=ADVANCED_FACE('',(#57,#58),#55,.T.);
#67=ADVANCED_FACE('',(#75),#52,.F.);
#68=ADVANCED_FACE('',(#59,#60),#56,.T.);
#69=ADVANCED_FACE('',(#76),#53,.T.);
#70=ADVANCED_FACE('',(#77),#54,.T.);
#71=ADVANCED_FACE('',(#61,#62),#37,.F.);
#72=ADVANCED_FACE('',(#63,#64),#36,.T.);
#73=SPHERICAL_SURFACE('',#156,5.953125);
#74=FACE_OUTER_BOUND('',#78,.T.);
#75=FACE_OUTER_BOUND('',#81,.T.);
#76=FACE_OUTER_BOUND('',#84,.T.);
#77=FACE_OUTER_BOUND('',#85,.T.);
#78=EDGE_LOOP('',(#90));
#79=EDGE_LOOP('',(#91));
#80=EDGE_LOOP('',(#92));
#81=EDGE_LOOP('',(#93));
#82=EDGE_LOOP('',(#94));
#83=EDGE_LOOP('',(#95));
#84=EDGE_LOOP('',(#96));
#85=EDGE_LOOP('',(#97));
#86=EDGE_LOOP('',(#98));
#87=EDGE_LOOP('',(#99));
#88=EDGE_LOOP('',(#100));
#89=EDGE_LOOP('',(#101));
#90=ORIENTED_EDGE('',*,*,#108,.T.);
#91=ORIENTED_EDGE('',*,*,#109,.F.);
#92=ORIENTED_EDGE('',*,*,#108,.F.);
#93=ORIENTED_EDGE('',*,*,#109,.T.);
#94=ORIENTED_EDGE('',*,*,#110,.T.);
#95=ORIENTED_EDGE('',*,*,#111,.F.);
#96=ORIENTED_EDGE('',*,*,#110,.F.);
#97=ORIENTED_EDGE('',*,*,#112,.T.);
#98=ORIENTED_EDGE('',*,*,#113,.T.);
#99=ORIENTED_EDGE('',*,*,#112,.F.);
#100=ORIENTED_EDGE('',*,*,#111,.T.);
#101=ORIENTED_EDGE('',*,*,#113,.F.);
#102=VERTEX_POINT('',#240);
#103=VERTEX_POINT('',#243);
#104=VERTEX_POINT('',#247);
#105=VERTEX_POINT('',#249);
#106=VERTEX_POINT('',#253);
#107=VERTEX_POINT('',#256);
#108=EDGE_CURVE('',#102,#102,#114,.T.);
#109=EDGE_CURVE('',#103,#103,#115,.T.);
#110=EDGE_CURVE('',#104,#104,#116,.T.);
#111=EDGE_CURVE('',#105,#105,#117,.T.);
#112=EDGE_CURVE('',#106,#106,#118,.T.);
#113=EDGE_CURVE('',#107,#107,#119,.T.);
#114=CIRCLE('',#155,5.95312497733218);
#115=CIRCLE('',#157,5.95142796267364);
#116=CIRCLE('',#160,5.7404);
#117=CIRCLE('',#161,6.35);
#118=CIRCLE('',#164,5.953125);
#119=CIRCLE('',#166,6.35);
#120=CURVE_STYLE('',#125,POSITIVE_LENGTH_MEASURE(0.18),#124);
#121=CURVE_STYLE('',#126,POSITIVE_LENGTH_MEASURE(0.18),#148);
#122=CURVE_STYLE('',#127,POSITIVE_LENGTH_MEASURE(0.18),#148);
#123=CURVE_STYLE('',#128,POSITIVE_LENGTH_MEASURE(0.18),#148);
#124=DRAUGHTING_PRE_DEFINED_COLOUR('blue');
#125=DRAUGHTING_PRE_DEFINED_CURVE_FONT('continuous');
#126=DRAUGHTING_PRE_DEFINED_CURVE_FONT('continuous');
#127=DRAUGHTING_PRE_DEFINED_CURVE_FONT('continuous');
#128=DRAUGHTING_PRE_DEFINED_CURVE_FONT('continuous');
#129=B_SPLINE_CURVE_WITH_KNOTS('CUTTING PART LINE',3,(#207,#208,#209,#210,
#211,#212,#213,#214,#215,#216,#217,#218,#219,#220,#221,#222,#223,#224,#225,
#226,#227,#228,#229,#230,#231,#232,#233,#234,#235),.UNSPECIFIED.,.T.,.F.,
(4,3,1,1,1,1,1,1,1,1,1,1,1,1,1,1,1,1,1,1,1,3,4),(0.,0.422281501,0.43199861645625,
0.4417157319125,0.45143284736875,0.461149962825,0.47086707828125,0.4805841937375,
0.49030130919375,0.50001842465,0.50973554010625,0.5194526555625,0.52916977101875,
0.538886886475,0.54860400193125,0.5583211173875,0.56803823284375,0.572896790571875,
0.5777553483,0.579775977290625,0.73940566755,0.9010559868,1.),
 .UNSPECIFIED.);
#130=PRESENTATION_LAYER_ASSIGNMENT('1','Layer 1',(#206,#129,#152,#153,#154,
#48,#49));
#131=STYLED_ITEM('',(#138),#206);
#132=STYLED_ITEM('',(#139),#129);
#133=STYLED_ITEM('',(#140),#152);
#134=STYLED_ITEM('',(#141),#153);
#135=STYLED_ITEM('',(#142),#154);
#136=STYLED_ITEM('',(#143),#48);
#137=STYLED_ITEM('',(#144),#49);
#138=PRESENTATION_STYLE_ASSIGNMENT((#145));
#139=PRESENTATION_STYLE_ASSIGNMENT((#120));
#140=PRESENTATION_STYLE_ASSIGNMENT((#121));
#141=PRESENTATION_STYLE_ASSIGNMENT((#122));
#142=PRESENTATION_STYLE_ASSIGNMENT((#123));
#143=PRESENTATION_STYLE_ASSIGNMENT((#38));
#144=PRESENTATION_STYLE_ASSIGNMENT((#39));
#145=POINT_STYLE('',#146,POSITIVE_LENGTH_MEASURE(3.),#147);
#146=PRE_DEFINED_POINT_MARKER_SYMBOL('plus');
#147=COLOUR_RGB('Medium Royal',0.301960784313725,0.427450980392157,0.701960784313725);
#148=COLOUR_RGB('Pale Maroon',0.811764705882353,0.603921568627451,0.611764705882353);
#149=COLOUR_RGB('light gray',0.8,0.8,0.8);
#150=COLOUR_RGB('medium gray',0.490196078431373,0.490196078431373,0.490196078431373);
#151=AXIS2_PLACEMENT_3D('',#205,#169,#170);
#152=AXIS2_PLACEMENT_3D('MCS',#236,#171,#172);
#153=AXIS2_PLACEMENT_3D('CIP',#237,#173,#174);
#154=AXIS2_PLACEMENT_3D('PCS',#238,#175,#176);
#155=AXIS2_PLACEMENT_3D('',#239,#177,#178);
#156=AXIS2_PLACEMENT_3D('',#241,#179,#180);
#157=AXIS2_PLACEMENT_3D('',#242,#181,#182);
#158=AXIS2_PLACEMENT_3D('',#244,#183,#184);
#159=AXIS2_PLACEMENT_3D('',#245,#185,#186);
#160=AXIS2_PLACEMENT_3D('',#246,#187,#188);
#161=AXIS2_PLACEMENT_3D('',#248,#189,#190);
#162=AXIS2_PLACEMENT_3D('',#250,#191,#192);
#163=AXIS2_PLACEMENT_3D('',#251,#193,#194);
#164=AXIS2_PLACEMENT_3D('',#252,#195,#196);
#165=AXIS2_PLACEMENT_3D('',#254,#197,#198);
#166=AXIS2_PLACEMENT_3D('',#255,#199,#200);
#167=AXIS2_PLACEMENT_3D('',#257,#201,#202);
#168=AXIS2_PLACEMENT_3D('',#258,#203,#204);
#169=DIRECTION('',(0.,0.,1.));
#170=DIRECTION('',(1.,0.,0.));
#171=DIRECTION('',(0.,0.,1.));
#172=DIRECTION('',(1.,0.,0.));
#173=DIRECTION('',(0.,0.,1.));
#174=DIRECTION('',(1.,0.,0.));
#175=DIRECTION('',(0.,0.,1.));
#176=DIRECTION('',(1.,0.,0.));
#177=DIRECTION('',(0.,0.,-1.));
#178=DIRECTION('',(-1.,0.,0.));
#179=DIRECTION('',(-6.12323399573677E-17,0.,-1.));
#180=DIRECTION('',(-1.,0.,0.));
#181=DIRECTION('',(0.,0.,1.));
#182=DIRECTION('',(-1.,0.,0.));
#183=DIRECTION('',(0.,0.,-1.));
#184=DIRECTION('',(-1.,0.,9.18999236742295E-15));
#185=DIRECTION('',(0.,0.,-1.));
#186=DIRECTION('',(-1.,0.,0.));
#187=DIRECTION('',(0.,0.,-1.));
#188=DIRECTION('',(-1.,0.,0.));
#189=DIRECTION('',(0.,0.,-1.));
#190=DIRECTION('',(-1.,0.,0.));
#191=DIRECTION('',(0.,0.,-1.));
#192=DIRECTION('',(-1.,0.,1.37902199113773E-17));
#193=DIRECTION('',(0.,0.,1.));
#194=DIRECTION('',(1.,0.,0.));
#195=DIRECTION('',(0.,0.,-1.));
#196=DIRECTION('',(-1.,0.,0.));
#197=DIRECTION('',(0.,0.,-1.));
#198=DIRECTION('',(-1.,0.,0.));
#199=DIRECTION('',(0.,0.,-1.));
#200=DIRECTION('',(-1.,0.,0.));
#201=DIRECTION('',(0.,0.,-1.));
#202=DIRECTION('',(-1.,0.,0.));
#203=DIRECTION('',(0.,0.,-1.));
#204=DIRECTION('',(-1.,0.,0.));
#205=CARTESIAN_POINT('',(0.,0.,0.));
#206=CARTESIAN_POINT('CRP',(-5.953125,0.,-76.2));
#207=CARTESIAN_POINT('',(0.,0.,-50.8));
#208=CARTESIAN_POINT('',(0.,0.,-59.2666666666667));
#209=CARTESIAN_POINT('',(6.07539623014512E-17,0.,-67.7333333333333));
#210=CARTESIAN_POINT('',(1.82261886904353E-16,0.,-76.2));
#211=CARTESIAN_POINT('',(-0.194826383148146,0.,-76.2));
#212=CARTESIAN_POINT('',(-0.584478846415516,0.,-76.180856521981));
#213=CARTESIAN_POINT('',(-1.16332821996447,0.,-76.0949875035367));
#214=CARTESIAN_POINT('',(-1.73097285715146,0.,-75.9527916829584));
#215=CARTESIAN_POINT('',(-2.28194543716365,0.,-75.7556386928051));
#216=CARTESIAN_POINT('',(-2.81093918403371,0.,-75.5054273795755));
#217=CARTESIAN_POINT('',(-3.31285905838703,0.,-75.2045677355884));
#218=CARTESIAN_POINT('',(-3.78287073006489,0.,-74.8559574753827));
#219=CARTESIAN_POINT('',(-4.21644726363231,0.,-74.4629543249866));
#220=CARTESIAN_POINT('',(-4.60941257509846,0.,-74.0293434979069));
#221=CARTESIAN_POINT('',(-4.95798181808084,0.,-73.5593014056685));
#222=CARTESIAN_POINT('',(-5.25879766014202,0.,-73.0573552783219));
#223=CARTESIAN_POINT('',(-5.50896280908707,0.,-72.5283396982756));
#224=CARTESIAN_POINT('',(-5.70606771713097,0.,-71.9773499153819));
#225=CARTESIAN_POINT('',(-5.84821400089251,0.,-71.4096928711007));
#226=CARTESIAN_POINT('',(-5.9197294208557,0.,-70.9273121500782));
#227=CARTESIAN_POINT('',(-5.94836461056816,0.,-70.5385954071535));
#228=CARTESIAN_POINT('',(-5.95362754244538,0.,-70.3032554069194));
#229=CARTESIAN_POINT('',(-5.95283860610855,0.,-66.9647830025924));
#230=CARTESIAN_POINT('',(-5.95227293455571,0.,-60.4826645053123));
#231=CARTESIAN_POINT('',(-5.95171079845007,0.,-54.0410592486401));
#232=CARTESIAN_POINT('',(-5.95142796267364,0.,-50.8));
#233=CARTESIAN_POINT('',(-3.96761864178243,0.,-50.8));
#234=CARTESIAN_POINT('',(-1.98380932089121,0.,-50.8));
#235=CARTESIAN_POINT('',(0.,0.,-50.8));
#236=CARTESIAN_POINT('',(0.,0.,-45.24));
#237=CARTESIAN_POINT('',(0.,0.,-76.2));
#238=CARTESIAN_POINT('',(0.,0.,0.));
#239=CARTESIAN_POINT('',(0.,0.,-70.2463554918405));
#240=CARTESIAN_POINT('',(-5.95312497733218,0.,-70.2463554918405));
#241=CARTESIAN_POINT('',(0.,0.,-70.246875));
#242=CARTESIAN_POINT('',(0.,0.,-50.8));
#243=CARTESIAN_POINT('',(-5.95142796267364,0.,-50.8));
#244=CARTESIAN_POINT('',(0.,0.,-70.2463554918405));
#245=CARTESIAN_POINT('',(0.,0.,-50.8));
#246=CARTESIAN_POINT('',(0.,0.,0.));
#247=CARTESIAN_POINT('',(-5.7404,0.,0.));
#248=CARTESIAN_POINT('',(0.,0.,-0.609600000000002));
#249=CARTESIAN_POINT('',(-6.35,0.,-0.609600000000002));
#250=CARTESIAN_POINT('',(0.,0.,-0.609600000000002));
#251=CARTESIAN_POINT('',(5.7404,0.,8.86948918889262E-17));
#252=CARTESIAN_POINT('',(0.,0.,-50.7999998519056));
#253=CARTESIAN_POINT('',(-5.953125,0.,-50.7999998519056));
#254=CARTESIAN_POINT('',(5.95142796267364,0.,-50.7999999259528));
#255=CARTESIAN_POINT('',(0.,0.,-47.6499023452637));
#256=CARTESIAN_POINT('',(-6.35,0.,-47.6499023452637));
#257=CARTESIAN_POINT('',(0.,0.,-50.8));
#258=CARTESIAN_POINT('',(0.,0.,-45.24));
#259=MECHANICAL_DESIGN_GEOMETRIC_PRESENTATION_REPRESENTATION('',(#131,#132,
#133,#134,#135,#136,#137),#260);
#260=(
GEOMETRIC_REPRESENTATION_CONTEXT(3)
GLOBAL_UNCERTAINTY_ASSIGNED_CONTEXT((#261))
GLOBAL_UNIT_ASSIGNED_CONTEXT((#267,#263,#262))
REPRESENTATION_CONTEXT('C5341-.469F2B','TOP_LEVEL_ASSEMBLY_PART')
);
#261=UNCERTAINTY_MEASURE_WITH_UNIT(LENGTH_MEASURE(2.E-5),#267,
'DISTANCE_ACCURACY_VALUE','Maximum Tolerance applied to model');
#262=(
NAMED_UNIT(*)
SI_UNIT($,.STERADIAN.)
SOLID_ANGLE_UNIT()
);
#263=(
CONVERSION_BASED_UNIT('DEGREE',#265)
NAMED_UNIT(#264)
PLANE_ANGLE_UNIT()
);
#264=DIMENSIONAL_EXPONENTS(0.,0.,0.,0.,0.,0.,0.);
#265=PLANE_ANGLE_MEASURE_WITH_UNIT(PLANE_ANGLE_MEASURE(0.0174532925),#266);
#266=(
NAMED_UNIT(*)
PLANE_ANGLE_UNIT()
SI_UNIT($,.RADIAN.)
);
#267=(
LENGTH_UNIT()
NAMED_UNIT(*)
SI_UNIT(.MILLI.,.METRE.)
);
ENDSEC;
END-ISO-10303-21;
