ISO-10303-21;
HEADER;
/* Generated by software containing ST-Developer
 * from STEP Tools, Inc. (www.steptools.com) 
 */
/* OPTION: using custom schema-name function */

FILE_DESCRIPTION(
/* description */ (''),
/* implementation_level */ '2;1');

FILE_NAME(
/* name */ 'C5341-010F4B.0Z4_Basic.stp',
/* time_stamp */ '2024-08-28T12:56:35+05:00',
/* author */ (''),
/* organization */ (''),
/* preprocessor_version */ 'ST-DEVELOPER v16.7',
/* originating_system */ 'SIEMENS PLM Software NX 12.0',
/* authorisation */ '');

FILE_SCHEMA (('AUTOMOTIVE_DESIGN { 1 0 10303 214 3 1 1 1 }'));
ENDSEC;

DATA;
#10=CONSTRUCTIVE_GEOMETRY_REPRESENTATION_RELATIONSHIP(
'supplemental geometry','',#34,#11);
#11=CONSTRUCTIVE_GEOMETRY_REPRESENTATION('supplemental geometry',(#176,
#177,#178),#280);
#12=GEOMETRICALLY_BOUNDED_WIREFRAME_SHAPE_REPRESENTATION(
'inpu010852CAwrrm-None',(#35),#280);
#13=PROPERTY_DEFINITION_REPRESENTATION(#17,#15);
#14=PROPERTY_DEFINITION_REPRESENTATION(#18,#16);
#15=REPRESENTATION('',(#19),#280);
#16=REPRESENTATION('',(#20),#280);
#17=PROPERTY_DEFINITION('pmi validation property','',#25);
#18=PROPERTY_DEFINITION('pmi validation property','',#25);
#19=VALUE_REPRESENTATION_ITEM('number of annotations',COUNT_MEASURE(0.));
#20=VALUE_REPRESENTATION_ITEM('number of views',COUNT_MEASURE(0.));
#21=SHAPE_REPRESENTATION_RELATIONSHIP('None',
'relationship between inpu010852CAwrrm-None and inpu010852CAwrrm-None',
#34,#23);
#22=SHAPE_REPRESENTATION_RELATIONSHIP('None',
'relationship between inpu010852CAwrrm-None and inpu010852CAwrrm-None',
#34,#12);
#23=ADVANCED_BREP_SHAPE_REPRESENTATION('inpu010852CAwrrm-None',(#48,#49),
#280);
#24=SHAPE_DEFINITION_REPRESENTATION(#25,#34);
#25=PRODUCT_DEFINITION_SHAPE('','',#26);
#26=PRODUCT_DEFINITION(' ','',#28,#27);
#27=PRODUCT_DEFINITION_CONTEXT('part definition',#33,'design');
#28=PRODUCT_DEFINITION_FORMATION_WITH_SPECIFIED_SOURCE(' ',' ',#30,
 .NOT_KNOWN.);
#29=PRODUCT_RELATED_PRODUCT_CATEGORY('part','',(#30));
#30=PRODUCT('inpu010852CAwrrm','inpu010852CAwrrm',' ',(#31));
#31=PRODUCT_CONTEXT(' ',#33,'mechanical');
#32=APPLICATION_PROTOCOL_DEFINITION('international standard',
'automotive_design',2010,#33);
#33=APPLICATION_CONTEXT(
'core data for automotive mechanical design processes');
#34=SHAPE_REPRESENTATION('inpu010852CAwrrm-None',(#175),#280);
#35=GEOMETRIC_CURVE_SET('None',(#236,#237,#238,#239,#140));
#36=CYLINDRICAL_SURFACE('',#191,0.514999999999994);
#37=CYLINDRICAL_SURFACE('',#194,1.5);
#38=SURFACE_STYLE_USAGE(.BOTH.,#40);
#39=SURFACE_STYLE_USAGE(.BOTH.,#41);
#40=SURFACE_SIDE_STYLE('',(#42));
#41=SURFACE_SIDE_STYLE('',(#43));
#42=SURFACE_STYLE_FILL_AREA(#44);
#43=SURFACE_STYLE_FILL_AREA(#45);
#44=FILL_AREA_STYLE('',(#46));
#45=FILL_AREA_STYLE('',(#47));
#46=FILL_AREA_STYLE_COLOUR('',#173);
#47=FILL_AREA_STYLE_COLOUR('',#174);
#48=MANIFOLD_SOLID_BREP('CUT',#50);
#49=MANIFOLD_SOLID_BREP('NOCUT',#51);
#50=CLOSED_SHELL('',(#68,#69,#70));
#51=CLOSED_SHELL('',(#71,#72,#73,#74,#75,#76));
#52=PLANE('',#183);
#53=PLANE('',#187);
#54=PLANE('',#189);
#55=CONICAL_SURFACE('',#182,0.499999998096141,0.00500000000002867);
#56=CONICAL_SURFACE('',#186,1.5,44.9999999999999);
#57=CONICAL_SURFACE('',#193,0.514999999999993,15.);
#58=FACE_BOUND('',#83,.T.);
#59=FACE_BOUND('',#84,.T.);
#60=FACE_BOUND('',#86,.T.);
#61=FACE_BOUND('',#87,.T.);
#62=FACE_BOUND('',#90,.T.);
#63=FACE_BOUND('',#91,.T.);
#64=FACE_BOUND('',#92,.T.);
#65=FACE_BOUND('',#93,.T.);
#66=FACE_BOUND('',#94,.T.);
#67=FACE_BOUND('',#95,.T.);
#68=ADVANCED_FACE('',(#78),#77,.T.);
#69=ADVANCED_FACE('',(#58,#59),#55,.T.);
#70=ADVANCED_FACE('',(#79),#52,.F.);
#71=ADVANCED_FACE('',(#60,#61),#56,.T.);
#72=ADVANCED_FACE('',(#80),#53,.T.);
#73=ADVANCED_FACE('',(#81),#54,.T.);
#74=ADVANCED_FACE('',(#62,#63),#36,.T.);
#75=ADVANCED_FACE('',(#64,#65),#57,.T.);
#76=ADVANCED_FACE('',(#66,#67),#37,.T.);
#77=SPHERICAL_SURFACE('',#180,0.5);
#78=FACE_OUTER_BOUND('',#82,.T.);
#79=FACE_OUTER_BOUND('',#85,.T.);
#80=FACE_OUTER_BOUND('',#88,.T.);
#81=FACE_OUTER_BOUND('',#89,.T.);
#82=EDGE_LOOP('',(#96));
#83=EDGE_LOOP('',(#97));
#84=EDGE_LOOP('',(#98));
#85=EDGE_LOOP('',(#99));
#86=EDGE_LOOP('',(#100));
#87=EDGE_LOOP('',(#101));
#88=EDGE_LOOP('',(#102));
#89=EDGE_LOOP('',(#103));
#90=EDGE_LOOP('',(#104));
#91=EDGE_LOOP('',(#105));
#92=EDGE_LOOP('',(#106));
#93=EDGE_LOOP('',(#107));
#94=EDGE_LOOP('',(#108));
#95=EDGE_LOOP('',(#109));
#96=ORIENTED_EDGE('',*,*,#117,.T.);
#97=ORIENTED_EDGE('',*,*,#118,.F.);
#98=ORIENTED_EDGE('',*,*,#117,.F.);
#99=ORIENTED_EDGE('',*,*,#118,.T.);
#100=ORIENTED_EDGE('',*,*,#119,.T.);
#101=ORIENTED_EDGE('',*,*,#120,.F.);
#102=ORIENTED_EDGE('',*,*,#119,.F.);
#103=ORIENTED_EDGE('',*,*,#121,.T.);
#104=ORIENTED_EDGE('',*,*,#122,.T.);
#105=ORIENTED_EDGE('',*,*,#121,.F.);
#106=ORIENTED_EDGE('',*,*,#123,.T.);
#107=ORIENTED_EDGE('',*,*,#122,.F.);
#108=ORIENTED_EDGE('',*,*,#120,.T.);
#109=ORIENTED_EDGE('',*,*,#123,.F.);
#110=VERTEX_POINT('',#257);
#111=VERTEX_POINT('',#260);
#112=VERTEX_POINT('',#264);
#113=VERTEX_POINT('',#266);
#114=VERTEX_POINT('',#270);
#115=VERTEX_POINT('',#273);
#116=VERTEX_POINT('',#276);
#117=EDGE_CURVE('',#110,#110,#124,.T.);
#118=EDGE_CURVE('',#111,#111,#125,.T.);
#119=EDGE_CURVE('',#112,#112,#126,.T.);
#120=EDGE_CURVE('',#113,#113,#127,.T.);
#121=EDGE_CURVE('',#114,#114,#128,.T.);
#122=EDGE_CURVE('',#115,#115,#129,.T.);
#123=EDGE_CURVE('',#116,#116,#130,.T.);
#124=CIRCLE('',#179,0.499999998096141);
#125=CIRCLE('',#181,0.499694569283982);
#126=CIRCLE('',#184,1.2);
#127=CIRCLE('',#185,1.5);
#128=CIRCLE('',#188,0.514999999999994);
#129=CIRCLE('',#190,0.514999999999993);
#130=CIRCLE('',#192,1.5);
#131=CURVE_STYLE('',#136,POSITIVE_LENGTH_MEASURE(0.18),#135);
#132=CURVE_STYLE('',#137,POSITIVE_LENGTH_MEASURE(0.18),#172);
#133=CURVE_STYLE('',#138,POSITIVE_LENGTH_MEASURE(0.18),#172);
#134=CURVE_STYLE('',#139,POSITIVE_LENGTH_MEASURE(0.18),#172);
#135=DRAUGHTING_PRE_DEFINED_COLOUR('blue');
#136=DRAUGHTING_PRE_DEFINED_CURVE_FONT('continuous');
#137=DRAUGHTING_PRE_DEFINED_CURVE_FONT('continuous');
#138=DRAUGHTING_PRE_DEFINED_CURVE_FONT('continuous');
#139=DRAUGHTING_PRE_DEFINED_CURVE_FONT('continuous');
#140=TRIMMED_CURVE('CUTTING PART LINE',#141,(PARAMETER_VALUE(0.)),(
PARAMETER_VALUE(1.)),.T.,.PARAMETER.);
#141=(
BOUNDED_CURVE()
B_SPLINE_CURVE(3,(#240,#241,#242,#243,#244,#245,#246,#247,#248,#249,#250,
#251,#252),.UNSPECIFIED.,.T.,.F.)
B_SPLINE_CURVE_WITH_KNOTS((1,3,3,3,3,3,1),(-0.056879828553271,0.,0.455316763941719,
0.544722968217075,0.943120171446729,1.,1.45531676394172),.UNSPECIFIED.)
CURVE()
GEOMETRIC_REPRESENTATION_ITEM()
RATIONAL_B_SPLINE_CURVE((1.,1.,1.,1.,0.804717284773137,0.804717284773137,
1.,1.,1.,1.,1.,1.,1.))
REPRESENTATION_ITEM('CUTTING PART LINE')
);
#142=PRESENTATION_LAYER_ASSIGNMENT('1','Layer 1',(#236,#237,#238,#239,#140,
#176,#177,#178,#48,#49));
#143=STYLED_ITEM('',(#153),#236);
#144=STYLED_ITEM('',(#154),#237);
#145=STYLED_ITEM('',(#155),#238);
#146=STYLED_ITEM('',(#156),#239);
#147=STYLED_ITEM('',(#157),#140);
#148=STYLED_ITEM('',(#158),#176);
#149=STYLED_ITEM('',(#159),#177);
#150=STYLED_ITEM('',(#160),#178);
#151=STYLED_ITEM('',(#161),#48);
#152=STYLED_ITEM('',(#162),#49);
#153=PRESENTATION_STYLE_ASSIGNMENT((#163));
#154=PRESENTATION_STYLE_ASSIGNMENT((#164));
#155=PRESENTATION_STYLE_ASSIGNMENT((#165));
#156=PRESENTATION_STYLE_ASSIGNMENT((#166));
#157=PRESENTATION_STYLE_ASSIGNMENT((#131));
#158=PRESENTATION_STYLE_ASSIGNMENT((#132));
#159=PRESENTATION_STYLE_ASSIGNMENT((#133));
#160=PRESENTATION_STYLE_ASSIGNMENT((#134));
#161=PRESENTATION_STYLE_ASSIGNMENT((#38));
#162=PRESENTATION_STYLE_ASSIGNMENT((#39));
#163=POINT_STYLE('',#167,POSITIVE_LENGTH_MEASURE(3.),#171);
#164=POINT_STYLE('',#168,POSITIVE_LENGTH_MEASURE(3.),#172);
#165=POINT_STYLE('',#169,POSITIVE_LENGTH_MEASURE(3.),#172);
#166=POINT_STYLE('',#170,POSITIVE_LENGTH_MEASURE(3.),#172);
#167=PRE_DEFINED_POINT_MARKER_SYMBOL('plus');
#168=PRE_DEFINED_POINT_MARKER_SYMBOL('plus');
#169=PRE_DEFINED_POINT_MARKER_SYMBOL('plus');
#170=PRE_DEFINED_POINT_MARKER_SYMBOL('plus');
#171=COLOUR_RGB('Pale Royal',0.219592584115358,0.470572976272221,0.752941176470588);
#172=COLOUR_RGB('Pale Maroon',0.811749446860456,0.603921568627451,0.611749446860456);
#173=COLOUR_RGB('Light Gray',0.8,0.8,0.8);
#174=COLOUR_RGB('Medium Gray',0.490196078431373,0.490196078431373,0.490196078431373);
#175=AXIS2_PLACEMENT_3D('',#235,#195,#196);
#176=AXIS2_PLACEMENT_3D('MCS',#253,#197,#198);
#177=AXIS2_PLACEMENT_3D('CIP',#254,#199,#200);
#178=AXIS2_PLACEMENT_3D('PCS',#255,#201,#202);
#179=AXIS2_PLACEMENT_3D('',#256,#203,#204);
#180=AXIS2_PLACEMENT_3D('',#258,#205,#206);
#181=AXIS2_PLACEMENT_3D('',#259,#207,#208);
#182=AXIS2_PLACEMENT_3D('',#261,#209,#210);
#183=AXIS2_PLACEMENT_3D('',#262,#211,#212);
#184=AXIS2_PLACEMENT_3D('',#263,#213,#214);
#185=AXIS2_PLACEMENT_3D('',#265,#215,#216);
#186=AXIS2_PLACEMENT_3D('',#267,#217,#218);
#187=AXIS2_PLACEMENT_3D('',#268,#219,#220);
#188=AXIS2_PLACEMENT_3D('',#269,#221,#222);
#189=AXIS2_PLACEMENT_3D('',#271,#223,#224);
#190=AXIS2_PLACEMENT_3D('',#272,#225,#226);
#191=AXIS2_PLACEMENT_3D('',#274,#227,#228);
#192=AXIS2_PLACEMENT_3D('',#275,#229,#230);
#193=AXIS2_PLACEMENT_3D('',#277,#231,#232);
#194=AXIS2_PLACEMENT_3D('',#278,#233,#234);
#195=DIRECTION('',(0.,0.,1.));
#196=DIRECTION('',(1.,0.,0.));
#197=DIRECTION('',(0.,0.,1.));
#198=DIRECTION('',(1.,0.,0.));
#199=DIRECTION('',(0.,0.,1.));
#200=DIRECTION('',(1.,0.,0.));
#201=DIRECTION('',(0.,0.,1.));
#202=DIRECTION('',(1.,0.,0.));
#203=DIRECTION('',(0.,0.,-1.));
#204=DIRECTION('',(-1.,0.,0.));
#205=DIRECTION('',(-3.69778549322349E-32,0.,-1.));
#206=DIRECTION('',(1.,0.,0.));
#207=DIRECTION('',(0.,0.,1.));
#208=DIRECTION('',(-1.,0.,0.));
#209=DIRECTION('',(0.,0.,-1.));
#210=DIRECTION('',(1.,0.,-4.72623203651843E-14));
#211=DIRECTION('',(0.,0.,-1.));
#212=DIRECTION('',(1.,0.,0.));
#213=DIRECTION('',(0.,0.,-1.));
#214=DIRECTION('',(-1.,0.,0.));
#215=DIRECTION('',(0.,0.,-1.));
#216=DIRECTION('',(-1.,0.,0.));
#217=DIRECTION('',(0.,0.,-1.));
#218=DIRECTION('',(1.,0.,3.10158684390512E-17));
#219=DIRECTION('',(0.,0.,1.));
#220=DIRECTION('',(-1.,0.,0.));
#221=DIRECTION('',(0.,0.,-1.));
#222=DIRECTION('',(-1.,0.,0.));
#223=DIRECTION('',(0.,0.,-1.));
#224=DIRECTION('',(1.,0.,0.));
#225=DIRECTION('',(0.,0.,-1.));
#226=DIRECTION('',(-1.,0.,0.));
#227=DIRECTION('',(0.,0.,-1.));
#228=DIRECTION('',(1.,0.,0.));
#229=DIRECTION('',(0.,0.,-1.));
#230=DIRECTION('',(-1.,0.,0.));
#231=DIRECTION('',(0.,0.,1.));
#232=DIRECTION('',(-1.,0.,-1.55079763324954E-16));
#233=DIRECTION('',(0.,0.,-1.));
#234=DIRECTION('',(1.,0.,0.));
#235=CARTESIAN_POINT('',(0.,0.,0.));
#236=CARTESIAN_POINT('CRP',(-0.5,0.,-39.));
#237=CARTESIAN_POINT('',(0.,0.,-27.6409299545446));
#238=CARTESIAN_POINT('',(0.,0.,-39.));
#239=CARTESIAN_POINT('',(0.,0.,0.));
#240=CARTESIAN_POINT('',(0.,0.,-35.));
#241=CARTESIAN_POINT('',(0.,0.,-36.3333333333333));
#242=CARTESIAN_POINT('',(0.,0.,-37.6666666666667));
#243=CARTESIAN_POINT('',(-4.28781124860719E-16,0.,-39.));
#244=CARTESIAN_POINT('',(-0.29291348537249,0.,-39.));
#245=CARTESIAN_POINT('',(-0.500025559619823,0.,-38.7928698510259));
#246=CARTESIAN_POINT('',(-0.49999999809614,0.,-38.4999563667688));
#247=CARTESIAN_POINT('',(-0.499898188492091,0.,-37.3333042445125));
#248=CARTESIAN_POINT('',(-0.499796378888036,0.,-36.1666521222563));
#249=CARTESIAN_POINT('',(-0.499694569283983,0.,-35.));
#250=CARTESIAN_POINT('',(-0.333129712855989,0.,-35.));
#251=CARTESIAN_POINT('',(-0.166564856427994,0.,-35.));
#252=CARTESIAN_POINT('',(0.,0.,-35.));
#253=CARTESIAN_POINT('',(0.,0.,-27.6409299545446));
#254=CARTESIAN_POINT('',(0.,0.,-39.));
#255=CARTESIAN_POINT('',(0.,0.,0.));
#256=CARTESIAN_POINT('',(0.,0.,-38.4999563667687));
#257=CARTESIAN_POINT('',(-0.499999998096141,0.,-38.4999563667687));
#258=CARTESIAN_POINT('',(0.,0.,-38.5));
#259=CARTESIAN_POINT('',(0.,0.,-35.));
#260=CARTESIAN_POINT('',(-0.499694569283982,0.,-35.));
#261=CARTESIAN_POINT('',(0.,0.,-38.4999563667687));
#262=CARTESIAN_POINT('',(0.,0.,-35.));
#263=CARTESIAN_POINT('',(0.,0.,0.));
#264=CARTESIAN_POINT('',(-1.2,0.,0.));
#265=CARTESIAN_POINT('',(0.,0.,-0.299999999999998));
#266=CARTESIAN_POINT('',(-1.5,0.,-0.299999999999998));
#267=CARTESIAN_POINT('',(0.,0.,-0.299999999999998));
#268=CARTESIAN_POINT('',(1.2,0.,8.5968480452997E-17));
#269=CARTESIAN_POINT('',(0.,0.,-34.9999986643492));
#270=CARTESIAN_POINT('',(-0.514999999999994,0.,-34.9999986643492));
#271=CARTESIAN_POINT('',(0.499694569283982,0.,-34.9999993321746));
#272=CARTESIAN_POINT('',(0.,0.,-31.317));
#273=CARTESIAN_POINT('',(-0.514999999999993,0.,-31.317));
#274=CARTESIAN_POINT('',(0.,0.,-28.));
#275=CARTESIAN_POINT('',(0.,0.,-27.6409299545446));
#276=CARTESIAN_POINT('',(-1.5,0.,-27.6409299545446));
#277=CARTESIAN_POINT('',(0.,0.,-31.317));
#278=CARTESIAN_POINT('',(0.,0.,-28.));
#279=MECHANICAL_DESIGN_GEOMETRIC_PRESENTATION_REPRESENTATION('',(#143,#144,
#145,#146,#147,#148,#149,#150,#151,#152),#280);
#280=(
GEOMETRIC_REPRESENTATION_CONTEXT(3)
GLOBAL_UNCERTAINTY_ASSIGNED_CONTEXT((#281))
GLOBAL_UNIT_ASSIGNED_CONTEXT((#287,#283,#282))
REPRESENTATION_CONTEXT('C5341-010F4B','TOP_LEVEL_ASSEMBLY_PART')
);
#281=UNCERTAINTY_MEASURE_WITH_UNIT(LENGTH_MEASURE(2.E-5),#287,
'DISTANCE_ACCURACY_VALUE','Maximum Tolerance applied to model');
#282=(
NAMED_UNIT(*)
SI_UNIT($,.STERADIAN.)
SOLID_ANGLE_UNIT()
);
#283=(
CONVERSION_BASED_UNIT('DEGREE',#285)
NAMED_UNIT(#284)
PLANE_ANGLE_UNIT()
);
#284=DIMENSIONAL_EXPONENTS(0.,0.,0.,0.,0.,0.,0.);
#285=PLANE_ANGLE_MEASURE_WITH_UNIT(PLANE_ANGLE_MEASURE(0.0174532925),#286);
#286=(
NAMED_UNIT(*)
PLANE_ANGLE_UNIT()
SI_UNIT($,.RADIAN.)
);
#287=(
LENGTH_UNIT()
NAMED_UNIT(*)
SI_UNIT(.MILLI.,.METRE.)
);
ENDSEC;
END-ISO-10303-21;
