ISO-10303-21;
HEADER;
/* Generated by software containing ST-Developer
 * from STEP Tools, Inc. (www.steptools.com) 
 */
/* OPTION: using custom schema-name function */

FILE_DESCRIPTION(
/* description */ (''),
/* implementation_level */ '2;1');

FILE_NAME(
/* name */ 'C5341-015F3B.0Z4_Basic.stp',
/* time_stamp */ '2024-03-06T11:52:07+05:00',
/* author */ (''),
/* organization */ (''),
/* preprocessor_version */ 'ST-DEVELOPER v16.7',
/* originating_system */ 'SIEMENS PLM Software NX 12.0',
/* authorisation */ '');

FILE_SCHEMA (('AUTOMOTIVE_DESIGN { 1 0 10303 214 3 1 1 1 }'));
ENDSEC;

DATA;
#10=CONSTRUCTIVE_GEOMETRY_REPRESENTATION_RELATIONSHIP(
'supplemental geometry','',#34,#11);
#11=CONSTRUCTIVE_GEOMETRY_REPRESENTATION('supplemental geometry',(#152,
#153,#154),#260);
#12=GEOMETRICALLY_BOUNDED_WIREFRAME_SHAPE_REPRESENTATION(
'inpu6610C15Cwxrc-None',(#35),#260);
#13=PROPERTY_DEFINITION_REPRESENTATION(#17,#15);
#14=PROPERTY_DEFINITION_REPRESENTATION(#18,#16);
#15=REPRESENTATION('',(#19),#260);
#16=REPRESENTATION('',(#20),#260);
#17=PROPERTY_DEFINITION('pmi validation property','',#25);
#18=PROPERTY_DEFINITION('pmi validation property','',#25);
#19=VALUE_REPRESENTATION_ITEM('number of annotations',COUNT_MEASURE(0.));
#20=VALUE_REPRESENTATION_ITEM('number of views',COUNT_MEASURE(0.));
#21=SHAPE_REPRESENTATION_RELATIONSHIP('None',
'relationship between inpu6610C15Cwxrc-None and inpu6610C15Cwxrc-None',
#34,#23);
#22=SHAPE_REPRESENTATION_RELATIONSHIP('None',
'relationship between inpu6610C15Cwxrc-None and inpu6610C15Cwxrc-None',
#34,#12);
#23=ADVANCED_BREP_SHAPE_REPRESENTATION('inpu6610C15Cwxrc-None',(#47,#48),
#260);
#24=SHAPE_DEFINITION_REPRESENTATION(#25,#34);
#25=PRODUCT_DEFINITION_SHAPE('','',#26);
#26=PRODUCT_DEFINITION(' ','',#28,#27);
#27=PRODUCT_DEFINITION_CONTEXT('part definition',#33,'design');
#28=PRODUCT_DEFINITION_FORMATION_WITH_SPECIFIED_SOURCE(' ',' ',#30,
 .NOT_KNOWN.);
#29=PRODUCT_RELATED_PRODUCT_CATEGORY('part','',(#30));
#30=PRODUCT('inpu6610C15Cwxrc','inpu6610C15Cwxrc',' ',(#31));
#31=PRODUCT_CONTEXT(' ',#33,'mechanical');
#32=APPLICATION_PROTOCOL_DEFINITION('international standard',
'automotive_design',2010,#33);
#33=APPLICATION_CONTEXT(
'core data for automotive mechanical design processes');
#34=SHAPE_REPRESENTATION('inpu6610C15Cwxrc-None',(#151),#260);
#35=GEOMETRIC_CURVE_SET('None',(#206,#129));
#36=SPHERICAL_SURFACE('',#165,0.75);
#37=SURFACE_STYLE_USAGE(.BOTH.,#39);
#38=SURFACE_STYLE_USAGE(.BOTH.,#40);
#39=SURFACE_SIDE_STYLE('',(#41));
#40=SURFACE_SIDE_STYLE('',(#42));
#41=SURFACE_STYLE_FILL_AREA(#43);
#42=SURFACE_STYLE_FILL_AREA(#44);
#43=FILL_AREA_STYLE('',(#45));
#44=FILL_AREA_STYLE('',(#46));
#45=FILL_AREA_STYLE_COLOUR('',#149);
#46=FILL_AREA_STYLE_COLOUR('',#150);
#47=MANIFOLD_SOLID_BREP('NOCUT',#49);
#48=MANIFOLD_SOLID_BREP('CUT',#50);
#49=CLOSED_SHELL('',(#60,#61,#62,#63,#64));
#50=CLOSED_SHELL('',(#65,#66,#67));
#51=CYLINDRICAL_SURFACE('',#163,1.5);
#52=TOROIDAL_SURFACE('',#162,5.76499999999999,5.);
#53=PLANE('',#158);
#54=PLANE('',#160);
#55=PLANE('',#168);
#56=FACE_OUTER_BOUND('',#80,.T.);
#57=FACE_OUTER_BOUND('',#81,.T.);
#58=FACE_OUTER_BOUND('',#86,.T.);
#59=FACE_OUTER_BOUND('',#89,.T.);
#60=ADVANCED_FACE('',(#70,#71),#68,.T.);
#61=ADVANCED_FACE('',(#56),#53,.T.);
#62=ADVANCED_FACE('',(#57),#54,.T.);
#63=ADVANCED_FACE('',(#72,#73),#52,.F.);
#64=ADVANCED_FACE('',(#74,#75),#51,.T.);
#65=ADVANCED_FACE('',(#58),#36,.T.);
#66=ADVANCED_FACE('',(#76,#77),#69,.T.);
#67=ADVANCED_FACE('',(#59),#55,.F.);
#68=CONICAL_SURFACE('',#157,1.5,44.9999999999999);
#69=CONICAL_SURFACE('',#167,0.749999997144211,0.00500000000003926);
#70=FACE_BOUND('',#78,.T.);
#71=FACE_BOUND('',#79,.T.);
#72=FACE_BOUND('',#82,.T.);
#73=FACE_BOUND('',#83,.T.);
#74=FACE_BOUND('',#84,.T.);
#75=FACE_BOUND('',#85,.T.);
#76=FACE_BOUND('',#87,.T.);
#77=FACE_BOUND('',#88,.T.);
#78=EDGE_LOOP('',(#90));
#79=EDGE_LOOP('',(#91));
#80=EDGE_LOOP('',(#92));
#81=EDGE_LOOP('',(#93));
#82=EDGE_LOOP('',(#94));
#83=EDGE_LOOP('',(#95));
#84=EDGE_LOOP('',(#96));
#85=EDGE_LOOP('',(#97));
#86=EDGE_LOOP('',(#98));
#87=EDGE_LOOP('',(#99));
#88=EDGE_LOOP('',(#100));
#89=EDGE_LOOP('',(#101));
#90=ORIENTED_EDGE('',*,*,#108,.T.);
#91=ORIENTED_EDGE('',*,*,#109,.F.);
#92=ORIENTED_EDGE('',*,*,#108,.F.);
#93=ORIENTED_EDGE('',*,*,#110,.T.);
#94=ORIENTED_EDGE('',*,*,#111,.T.);
#95=ORIENTED_EDGE('',*,*,#110,.F.);
#96=ORIENTED_EDGE('',*,*,#109,.T.);
#97=ORIENTED_EDGE('',*,*,#111,.F.);
#98=ORIENTED_EDGE('',*,*,#112,.T.);
#99=ORIENTED_EDGE('',*,*,#113,.F.);
#100=ORIENTED_EDGE('',*,*,#112,.F.);
#101=ORIENTED_EDGE('',*,*,#113,.T.);
#102=VERTEX_POINT('',#240);
#103=VERTEX_POINT('',#242);
#104=VERTEX_POINT('',#246);
#105=VERTEX_POINT('',#249);
#106=VERTEX_POINT('',#253);
#107=VERTEX_POINT('',#256);
#108=EDGE_CURVE('',#102,#102,#114,.T.);
#109=EDGE_CURVE('',#103,#103,#115,.T.);
#110=EDGE_CURVE('',#104,#104,#116,.T.);
#111=EDGE_CURVE('',#105,#105,#117,.T.);
#112=EDGE_CURVE('',#106,#106,#118,.T.);
#113=EDGE_CURVE('',#107,#107,#119,.T.);
#114=CIRCLE('',#155,1.2);
#115=CIRCLE('',#156,1.5);
#116=CIRCLE('',#159,0.764999999999994);
#117=CIRCLE('',#161,1.5);
#118=CIRCLE('',#164,0.749999997144211);
#119=CIRCLE('',#166,0.749672753620206);
#120=CURVE_STYLE('',#125,POSITIVE_LENGTH_MEASURE(0.18),#124);
#121=CURVE_STYLE('',#126,POSITIVE_LENGTH_MEASURE(0.18),#148);
#122=CURVE_STYLE('',#127,POSITIVE_LENGTH_MEASURE(0.18),#148);
#123=CURVE_STYLE('',#128,POSITIVE_LENGTH_MEASURE(0.18),#148);
#124=DRAUGHTING_PRE_DEFINED_COLOUR('blue');
#125=DRAUGHTING_PRE_DEFINED_CURVE_FONT('continuous');
#126=DRAUGHTING_PRE_DEFINED_CURVE_FONT('continuous');
#127=DRAUGHTING_PRE_DEFINED_CURVE_FONT('continuous');
#128=DRAUGHTING_PRE_DEFINED_CURVE_FONT('continuous');
#129=B_SPLINE_CURVE_WITH_KNOTS('CUTTING PART LINE',3,(#207,#208,#209,#210,
#211,#212,#213,#214,#215,#216,#217,#218,#219,#220,#221,#222,#223,#224,#225,
#226,#227,#228,#229,#230,#231,#232,#233,#234,#235),.UNSPECIFIED.,.T.,.F.,
(4,3,1,1,1,1,1,1,1,1,1,1,1,1,1,1,1,1,1,1,1,3,4),(0.,0.4421400753,0.44937497728125,
0.4566098792625,0.46384478124375,0.471079683225,0.47831458520625,0.4855494871875,
0.49278438916875,0.50001929115,0.50725419313125,0.5144890951125,0.52172399709375,
0.528958899075,0.53619380105625,0.5434287030375,0.55066360501875,0.554281056009375,
0.557898507,0.560201279709375,0.74212032375,0.9263421405,1.),
 .UNSPECIFIED.);
#130=PRESENTATION_LAYER_ASSIGNMENT('1','Layer 1',(#206,#129,#152,#153,#154,
#47,#48));
#131=STYLED_ITEM('',(#138),#206);
#132=STYLED_ITEM('',(#139),#129);
#133=STYLED_ITEM('',(#140),#152);
#134=STYLED_ITEM('',(#141),#153);
#135=STYLED_ITEM('',(#142),#154);
#136=STYLED_ITEM('',(#143),#47);
#137=STYLED_ITEM('',(#144),#48);
#138=PRESENTATION_STYLE_ASSIGNMENT((#145));
#139=PRESENTATION_STYLE_ASSIGNMENT((#120));
#140=PRESENTATION_STYLE_ASSIGNMENT((#121));
#141=PRESENTATION_STYLE_ASSIGNMENT((#122));
#142=PRESENTATION_STYLE_ASSIGNMENT((#123));
#143=PRESENTATION_STYLE_ASSIGNMENT((#37));
#144=PRESENTATION_STYLE_ASSIGNMENT((#38));
#145=POINT_STYLE('',#146,POSITIVE_LENGTH_MEASURE(3.),#147);
#146=PRE_DEFINED_POINT_MARKER_SYMBOL('plus');
#147=COLOUR_RGB('Medium Royal',0.2,0.4,0.8);
#148=COLOUR_RGB('Pale Maroon',0.811749446860456,0.603921568627451,0.611749446860456);
#149=COLOUR_RGB('Medium Gray',0.490196078431373,0.490196078431373,0.490196078431373);
#150=COLOUR_RGB('Light Gray',0.8,0.8,0.8);
#151=AXIS2_PLACEMENT_3D('',#205,#169,#170);
#152=AXIS2_PLACEMENT_3D('MCS',#236,#171,#172);
#153=AXIS2_PLACEMENT_3D('CIP',#237,#173,#174);
#154=AXIS2_PLACEMENT_3D('PCS',#238,#175,#176);
#155=AXIS2_PLACEMENT_3D('',#239,#177,#178);
#156=AXIS2_PLACEMENT_3D('',#241,#179,#180);
#157=AXIS2_PLACEMENT_3D('',#243,#181,#182);
#158=AXIS2_PLACEMENT_3D('',#244,#183,#184);
#159=AXIS2_PLACEMENT_3D('',#245,#185,#186);
#160=AXIS2_PLACEMENT_3D('',#247,#187,#188);
#161=AXIS2_PLACEMENT_3D('',#248,#189,#190);
#162=AXIS2_PLACEMENT_3D('',#250,#191,#192);
#163=AXIS2_PLACEMENT_3D('',#251,#193,#194);
#164=AXIS2_PLACEMENT_3D('',#252,#195,#196);
#165=AXIS2_PLACEMENT_3D('',#254,#197,#198);
#166=AXIS2_PLACEMENT_3D('',#255,#199,#200);
#167=AXIS2_PLACEMENT_3D('',#257,#201,#202);
#168=AXIS2_PLACEMENT_3D('',#258,#203,#204);
#169=DIRECTION('',(0.,0.,1.));
#170=DIRECTION('',(1.,0.,0.));
#171=DIRECTION('',(0.,0.,1.));
#172=DIRECTION('',(1.,0.,0.));
#173=DIRECTION('',(0.,0.,1.));
#174=DIRECTION('',(1.,0.,0.));
#175=DIRECTION('',(0.,0.,1.));
#176=DIRECTION('',(1.,0.,0.));
#177=DIRECTION('',(0.,0.,-1.));
#178=DIRECTION('',(-1.,0.,0.));
#179=DIRECTION('',(0.,0.,-1.));
#180=DIRECTION('',(-1.,0.,0.));
#181=DIRECTION('',(0.,0.,-1.));
#182=DIRECTION('',(-1.,0.,3.11782551848054E-17));
#183=DIRECTION('',(0.,0.,1.));
#184=DIRECTION('',(1.,0.,0.));
#185=DIRECTION('',(0.,0.,-1.));
#186=DIRECTION('',(-1.,0.,0.));
#187=DIRECTION('',(0.,0.,-1.));
#188=DIRECTION('',(-1.,0.,0.));
#189=DIRECTION('',(0.,0.,-1.));
#190=DIRECTION('',(-1.,0.,0.));
#191=DIRECTION('',(0.,0.,-1.));
#192=DIRECTION('',(-1.,0.,0.));
#193=DIRECTION('',(0.,0.,-1.));
#194=DIRECTION('',(-1.,0.,0.));
#195=DIRECTION('',(0.,0.,-1.));
#196=DIRECTION('',(-1.,0.,0.));
#197=DIRECTION('',(-6.12323399573677E-17,0.,-1.));
#198=DIRECTION('',(-1.,0.,0.));
#199=DIRECTION('',(0.,0.,1.));
#200=DIRECTION('',(-1.,0.,0.));
#201=DIRECTION('',(0.,0.,-1.));
#202=DIRECTION('',(-1.,0.,0.));
#203=DIRECTION('',(0.,0.,-1.));
#204=DIRECTION('',(-1.,0.,0.));
#205=CARTESIAN_POINT('',(0.,0.,0.));
#206=CARTESIAN_POINT('CRP',(-0.75,0.,-38.));
#207=CARTESIAN_POINT('',(0.,0.,-33.5));
#208=CARTESIAN_POINT('',(0.,0.,-35.));
#209=CARTESIAN_POINT('',(-2.14390562430359E-16,0.,-36.5));
#210=CARTESIAN_POINT('',(-6.43171687291079E-16,0.,-38.));
#211=CARTESIAN_POINT('',(-0.024545056144649,0.,-38.));
#212=CARTESIAN_POINT('',(-0.0736351302570734,0.,-37.9975882232417));
#213=CARTESIAN_POINT('',(-0.146561035586075,0.,-37.9867700791857));
#214=CARTESIAN_POINT('',(-0.218075320586011,0.,-37.9688556450971));
#215=CARTESIAN_POINT('',(-0.287489188934003,0.,-37.9440174731093));
#216=CARTESIAN_POINT('',(-0.354134070429444,0.,-37.912494787978));
#217=CARTESIAN_POINT('',(-0.417368070347972,0.,-37.8745912107828));
#218=CARTESIAN_POINT('',(-0.476582139220774,0.,-37.8306718079222));
#219=CARTESIAN_POINT('',(-0.531205954473359,0.,-37.7811595999983));
#220=CARTESIAN_POINT('',(-0.580713395287995,0.,-37.7265314643032));
#221=CARTESIAN_POINT('',(-0.624627630624357,0.,-37.6673135629189));
#222=CARTESIAN_POINT('',(-0.66252568946671,0.,-37.6040762555366));
#223=CARTESIAN_POINT('',(-0.694042558625141,0.,-37.5374286234048));
#224=CARTESIAN_POINT('',(-0.718874673024373,0.,-37.4680125877646));
#225=CARTESIAN_POINT('',(-0.736782866254173,0.,-37.3964967396662));
#226=CARTESIAN_POINT('',(-0.745792682942449,0.,-37.3357243653642));
#227=CARTESIAN_POINT('',(-0.749400265898349,0.,-37.2867521772792));
#228=CARTESIAN_POINT('',(-0.750096340909337,0.,-37.2543947076811));
#229=CARTESIAN_POINT('',(-0.749944774799534,0.,-36.6171330948148));
#230=CARTESIAN_POINT('',(-0.749835693624866,0.,-35.3671549114304));
#231=CARTESIAN_POINT('',(-0.74972729420754,0.,-34.1249890916922));
#232=CARTESIAN_POINT('',(-0.749672753620207,0.,-33.5));
#233=CARTESIAN_POINT('',(-0.499781835746804,0.,-33.5));
#234=CARTESIAN_POINT('',(-0.249890917873402,0.,-33.5));
#235=CARTESIAN_POINT('',(0.,0.,-33.5));
#236=CARTESIAN_POINT('',(0.,0.,-19.));
#237=CARTESIAN_POINT('',(0.,0.,-38.));
#238=CARTESIAN_POINT('',(0.,0.,0.));
#239=CARTESIAN_POINT('',(0.,0.,0.));
#240=CARTESIAN_POINT('',(-1.2,0.,0.));
#241=CARTESIAN_POINT('',(0.,0.,-0.299999999999998));
#242=CARTESIAN_POINT('',(-1.5,0.,-0.299999999999998));
#243=CARTESIAN_POINT('',(0.,0.,-0.299999999999998));
#244=CARTESIAN_POINT('',(1.2,0.,8.86948918889262E-17));
#245=CARTESIAN_POINT('',(0.,0.,-33.4999986624454));
#246=CARTESIAN_POINT('',(-0.764999999999994,0.,-33.4999986624454));
#247=CARTESIAN_POINT('',(0.749672753620206,0.,-33.4999993312227));
#248=CARTESIAN_POINT('',(0.,0.,-30.8904454403098));
#249=CARTESIAN_POINT('',(-1.5,0.,-30.8904454403098));
#250=CARTESIAN_POINT('',(0.,0.,-33.5));
#251=CARTESIAN_POINT('',(0.,0.,-19.));
#252=CARTESIAN_POINT('',(0.,0.,-37.2499345501531));
#253=CARTESIAN_POINT('',(-0.749999997144211,0.,-37.2499345501531));
#254=CARTESIAN_POINT('',(0.,0.,-37.25));
#255=CARTESIAN_POINT('',(0.,0.,-33.5));
#256=CARTESIAN_POINT('',(-0.749672753620206,0.,-33.5));
#257=CARTESIAN_POINT('',(0.,0.,-37.2499345501531));
#258=CARTESIAN_POINT('',(0.,0.,-33.5));
#259=MECHANICAL_DESIGN_GEOMETRIC_PRESENTATION_REPRESENTATION('',(#131,#132,
#133,#134,#135,#136,#137),#260);
#260=(
GEOMETRIC_REPRESENTATION_CONTEXT(3)
GLOBAL_UNCERTAINTY_ASSIGNED_CONTEXT((#261))
GLOBAL_UNIT_ASSIGNED_CONTEXT((#267,#263,#262))
REPRESENTATION_CONTEXT('C5341-015F3B','TOP_LEVEL_ASSEMBLY_PART')
);
#261=UNCERTAINTY_MEASURE_WITH_UNIT(LENGTH_MEASURE(2.E-5),#267,
'DISTANCE_ACCURACY_VALUE','Maximum Tolerance applied to model');
#262=(
NAMED_UNIT(*)
SI_UNIT($,.STERADIAN.)
SOLID_ANGLE_UNIT()
);
#263=(
CONVERSION_BASED_UNIT('DEGREE',#265)
NAMED_UNIT(#264)
PLANE_ANGLE_UNIT()
);
#264=DIMENSIONAL_EXPONENTS(0.,0.,0.,0.,0.,0.,0.);
#265=PLANE_ANGLE_MEASURE_WITH_UNIT(PLANE_ANGLE_MEASURE(0.0174532925),#266);
#266=(
NAMED_UNIT(*)
PLANE_ANGLE_UNIT()
SI_UNIT($,.RADIAN.)
);
#267=(
LENGTH_UNIT()
NAMED_UNIT(*)
SI_UNIT(.MILLI.,.METRE.)
);
ENDSEC;
END-ISO-10303-21;
