ISO-10303-21;
HEADER;
/* Generated by software containing ST-Developer
 * from STEP Tools, Inc. (www.steptools.com) 
 */
/* OPTION: using custom schema-name function */

FILE_DESCRIPTION(
/* description */ (''),
/* implementation_level */ '2;1');

FILE_NAME(
/* name */ 'C5341-020F2B.0Z4_Basic.stp',
/* time_stamp */ '2024-08-28T11:41:13+05:00',
/* author */ (''),
/* organization */ (''),
/* preprocessor_version */ 'ST-DEVELOPER v18.102',
/* originating_system */ 'SIEMENS PLM Software NX2206.8101',
/* authorisation */ '');

FILE_SCHEMA (('AUTOMOTIVE_DESIGN { 1 0 10303 214 3 1 1 1 }'));
ENDSEC;

DATA;
#10=CONSTRUCTIVE_GEOMETRY_REPRESENTATION_RELATIONSHIP(
'supplemental geometry','',#34,#11);
#11=CONSTRUCTIVE_GEOMETRY_REPRESENTATION('supplemental geometry',(#164,
#165,#166),#265);
#12=GEOMETRICALLY_BOUNDED_WIREFRAME_SHAPE_REPRESENTATION(
'inpu16BC37EDwzxf-None',(#35),#265);
#13=PROPERTY_DEFINITION_REPRESENTATION(#17,#15);
#14=PROPERTY_DEFINITION_REPRESENTATION(#18,#16);
#15=REPRESENTATION('',(#19),#265);
#16=REPRESENTATION('',(#20),#265);
#17=PROPERTY_DEFINITION('pmi validation property','',#25);
#18=PROPERTY_DEFINITION('pmi validation property','',#25);
#19=VALUE_REPRESENTATION_ITEM('number of annotations',COUNT_MEASURE(0.));
#20=VALUE_REPRESENTATION_ITEM('number of views',COUNT_MEASURE(0.));
#21=SHAPE_REPRESENTATION_RELATIONSHIP('None',
'relationship between inpu16BC37EDwzxf-None and inpu16BC37EDwzxf-None',
#34,#23);
#22=SHAPE_REPRESENTATION_RELATIONSHIP('None',
'relationship between inpu16BC37EDwzxf-None and inpu16BC37EDwzxf-None',
#34,#12);
#23=ADVANCED_BREP_SHAPE_REPRESENTATION('inpu16BC37EDwzxf-None',(#48,#49),
#265);
#24=SHAPE_DEFINITION_REPRESENTATION(#25,#34);
#25=PRODUCT_DEFINITION_SHAPE('','',#26);
#26=PRODUCT_DEFINITION(' ','',#28,#27);
#27=PRODUCT_DEFINITION_CONTEXT('part definition',#33,'design');
#28=PRODUCT_DEFINITION_FORMATION_WITH_SPECIFIED_SOURCE(' ',' ',#30,
 .NOT_KNOWN.);
#29=PRODUCT_RELATED_PRODUCT_CATEGORY('part','',(#30));
#30=PRODUCT('inpu16BC37EDwzxf','inpu16BC37EDwzxf',' ',(#31));
#31=PRODUCT_CONTEXT(' ',#33,'mechanical');
#32=APPLICATION_PROTOCOL_DEFINITION('international standard',
'automotive_design',2010,#33);
#33=APPLICATION_CONTEXT(
'core data for automotive mechanical design processes');
#34=SHAPE_REPRESENTATION('inpu16BC37EDwzxf-None',(#163),#265);
#35=GEOMETRIC_CURVE_SET('None',(#224,#140));
#36=CYLINDRICAL_SURFACE('',#179,1.01499999999999);
#37=CYLINDRICAL_SURFACE('',#182,1.5);
#38=SURFACE_STYLE_USAGE(.BOTH.,#40);
#39=SURFACE_STYLE_USAGE(.BOTH.,#41);
#40=SURFACE_SIDE_STYLE('',(#42));
#41=SURFACE_SIDE_STYLE('',(#43));
#42=SURFACE_STYLE_FILL_AREA(#44);
#43=SURFACE_STYLE_FILL_AREA(#45);
#44=FILL_AREA_STYLE('',(#46));
#45=FILL_AREA_STYLE('',(#47));
#46=FILL_AREA_STYLE_COLOUR('',#161);
#47=FILL_AREA_STYLE_COLOUR('',#162);
#48=MANIFOLD_SOLID_BREP('CUT',#50);
#49=MANIFOLD_SOLID_BREP('NOCUT',#51);
#50=CLOSED_SHELL('',(#68,#69,#70));
#51=CLOSED_SHELL('',(#71,#72,#73,#74,#75,#76));
#52=PLANE('',#171);
#53=PLANE('',#175);
#54=PLANE('',#177);
#55=CONICAL_SURFACE('',#170,0.999999996192282,0.00500000000003918);
#56=CONICAL_SURFACE('',#174,1.5,44.9999999999999);
#57=CONICAL_SURFACE('',#181,1.01499999999999,15.0000000000001);
#58=FACE_BOUND('',#83,.T.);
#59=FACE_BOUND('',#84,.T.);
#60=FACE_BOUND('',#86,.T.);
#61=FACE_BOUND('',#87,.T.);
#62=FACE_BOUND('',#90,.T.);
#63=FACE_BOUND('',#91,.T.);
#64=FACE_BOUND('',#92,.T.);
#65=FACE_BOUND('',#93,.T.);
#66=FACE_BOUND('',#94,.T.);
#67=FACE_BOUND('',#95,.T.);
#68=ADVANCED_FACE('',(#78),#77,.T.);
#69=ADVANCED_FACE('',(#58,#59),#55,.T.);
#70=ADVANCED_FACE('',(#79),#52,.F.);
#71=ADVANCED_FACE('',(#60,#61),#56,.T.);
#72=ADVANCED_FACE('',(#80),#53,.T.);
#73=ADVANCED_FACE('',(#81),#54,.T.);
#74=ADVANCED_FACE('',(#62,#63),#36,.T.);
#75=ADVANCED_FACE('',(#64,#65),#57,.T.);
#76=ADVANCED_FACE('',(#66,#67),#37,.T.);
#77=SPHERICAL_SURFACE('',#168,1.);
#78=FACE_OUTER_BOUND('',#82,.T.);
#79=FACE_OUTER_BOUND('',#85,.T.);
#80=FACE_OUTER_BOUND('',#88,.T.);
#81=FACE_OUTER_BOUND('',#89,.T.);
#82=EDGE_LOOP('',(#96));
#83=EDGE_LOOP('',(#97));
#84=EDGE_LOOP('',(#98));
#85=EDGE_LOOP('',(#99));
#86=EDGE_LOOP('',(#100));
#87=EDGE_LOOP('',(#101));
#88=EDGE_LOOP('',(#102));
#89=EDGE_LOOP('',(#103));
#90=EDGE_LOOP('',(#104));
#91=EDGE_LOOP('',(#105));
#92=EDGE_LOOP('',(#106));
#93=EDGE_LOOP('',(#107));
#94=EDGE_LOOP('',(#108));
#95=EDGE_LOOP('',(#109));
#96=ORIENTED_EDGE('',*,*,#117,.T.);
#97=ORIENTED_EDGE('',*,*,#118,.F.);
#98=ORIENTED_EDGE('',*,*,#117,.F.);
#99=ORIENTED_EDGE('',*,*,#118,.T.);
#100=ORIENTED_EDGE('',*,*,#119,.T.);
#101=ORIENTED_EDGE('',*,*,#120,.F.);
#102=ORIENTED_EDGE('',*,*,#119,.F.);
#103=ORIENTED_EDGE('',*,*,#121,.T.);
#104=ORIENTED_EDGE('',*,*,#122,.T.);
#105=ORIENTED_EDGE('',*,*,#121,.F.);
#106=ORIENTED_EDGE('',*,*,#123,.T.);
#107=ORIENTED_EDGE('',*,*,#122,.F.);
#108=ORIENTED_EDGE('',*,*,#120,.T.);
#109=ORIENTED_EDGE('',*,*,#123,.F.);
#110=VERTEX_POINT('',#242);
#111=VERTEX_POINT('',#245);
#112=VERTEX_POINT('',#249);
#113=VERTEX_POINT('',#251);
#114=VERTEX_POINT('',#255);
#115=VERTEX_POINT('',#258);
#116=VERTEX_POINT('',#261);
#117=EDGE_CURVE('',#110,#110,#124,.T.);
#118=EDGE_CURVE('',#111,#111,#125,.T.);
#119=EDGE_CURVE('',#112,#112,#126,.T.);
#120=EDGE_CURVE('',#113,#113,#127,.T.);
#121=EDGE_CURVE('',#114,#114,#128,.T.);
#122=EDGE_CURVE('',#115,#115,#129,.T.);
#123=EDGE_CURVE('',#116,#116,#130,.T.);
#124=CIRCLE('',#167,0.999999996192282);
#125=CIRCLE('',#169,0.999738204419252);
#126=CIRCLE('',#172,1.2);
#127=CIRCLE('',#173,1.5);
#128=CIRCLE('',#176,1.01499999999999);
#129=CIRCLE('',#178,1.01499999999999);
#130=CIRCLE('',#180,1.5);
#131=CURVE_STYLE('',#136,POSITIVE_LENGTH_MEASURE(0.18),#135);
#132=CURVE_STYLE('',#137,POSITIVE_LENGTH_MEASURE(0.18),#160);
#133=CURVE_STYLE('',#138,POSITIVE_LENGTH_MEASURE(0.18),#160);
#134=CURVE_STYLE('',#139,POSITIVE_LENGTH_MEASURE(0.18),#160);
#135=DRAUGHTING_PRE_DEFINED_COLOUR('blue');
#136=DRAUGHTING_PRE_DEFINED_CURVE_FONT('continuous');
#137=DRAUGHTING_PRE_DEFINED_CURVE_FONT('continuous');
#138=DRAUGHTING_PRE_DEFINED_CURVE_FONT('continuous');
#139=DRAUGHTING_PRE_DEFINED_CURVE_FONT('continuous');
#140=TRIMMED_CURVE('CUTTING PART LINE',#141,(PARAMETER_VALUE(0.)),(
PARAMETER_VALUE(1.)),.T.,.PARAMETER.);
#141=(
BOUNDED_CURVE()
B_SPLINE_CURVE(3,(#225,#226,#227,#228,#229,#230,#231,#232,#233,#234,#235,
#236,#237),.UNSPECIFIED.,.T.,.F.)
B_SPLINE_CURVE_WITH_KNOTS((4,3,3,3,4),(0.,0.417949486747991,0.58208698463179,
0.895539982644554,1.),.UNSPECIFIED.)
CURVE()
GEOMETRIC_REPRESENTATION_ITEM()
RATIONAL_B_SPLINE_CURVE((1.,1.,1.,1.,0.804717284773137,0.804717284773137,
1.,1.,1.,1.,1.,1.,1.))
REPRESENTATION_ITEM('CUTTING PART LINE')
);
#142=PRESENTATION_LAYER_ASSIGNMENT('1','Layer 1',(#224,#140,#164,#165,#166,
#48,#49));
#143=STYLED_ITEM('',(#150),#224);
#144=STYLED_ITEM('',(#151),#140);
#145=STYLED_ITEM('',(#152),#164);
#146=STYLED_ITEM('',(#153),#165);
#147=STYLED_ITEM('',(#154),#166);
#148=STYLED_ITEM('',(#155),#48);
#149=STYLED_ITEM('',(#156),#49);
#150=PRESENTATION_STYLE_ASSIGNMENT((#157));
#151=PRESENTATION_STYLE_ASSIGNMENT((#131));
#152=PRESENTATION_STYLE_ASSIGNMENT((#132));
#153=PRESENTATION_STYLE_ASSIGNMENT((#133));
#154=PRESENTATION_STYLE_ASSIGNMENT((#134));
#155=PRESENTATION_STYLE_ASSIGNMENT((#38));
#156=PRESENTATION_STYLE_ASSIGNMENT((#39));
#157=POINT_STYLE('',#158,POSITIVE_LENGTH_MEASURE(3.),#159);
#158=PRE_DEFINED_POINT_MARKER_SYMBOL('plus');
#159=COLOUR_RGB('Medium Royal',0.301960784313725,0.427450980392157,0.701960784313725);
#160=COLOUR_RGB('Pale Maroon',0.811764705882353,0.603921568627451,0.611764705882353);
#161=COLOUR_RGB('light gray',0.8,0.8,0.8);
#162=COLOUR_RGB('medium gray',0.490196078431373,0.490196078431373,0.490196078431373);
#163=AXIS2_PLACEMENT_3D('',#223,#183,#184);
#164=AXIS2_PLACEMENT_3D('MCS',#238,#185,#186);
#165=AXIS2_PLACEMENT_3D('CIP',#239,#187,#188);
#166=AXIS2_PLACEMENT_3D('PCS',#240,#189,#190);
#167=AXIS2_PLACEMENT_3D('',#241,#191,#192);
#168=AXIS2_PLACEMENT_3D('',#243,#193,#194);
#169=AXIS2_PLACEMENT_3D('',#244,#195,#196);
#170=AXIS2_PLACEMENT_3D('',#246,#197,#198);
#171=AXIS2_PLACEMENT_3D('',#247,#199,#200);
#172=AXIS2_PLACEMENT_3D('',#248,#201,#202);
#173=AXIS2_PLACEMENT_3D('',#250,#203,#204);
#174=AXIS2_PLACEMENT_3D('',#252,#205,#206);
#175=AXIS2_PLACEMENT_3D('',#253,#207,#208);
#176=AXIS2_PLACEMENT_3D('',#254,#209,#210);
#177=AXIS2_PLACEMENT_3D('',#256,#211,#212);
#178=AXIS2_PLACEMENT_3D('',#257,#213,#214);
#179=AXIS2_PLACEMENT_3D('',#259,#215,#216);
#180=AXIS2_PLACEMENT_3D('',#260,#217,#218);
#181=AXIS2_PLACEMENT_3D('',#262,#219,#220);
#182=AXIS2_PLACEMENT_3D('',#263,#221,#222);
#183=DIRECTION('',(0.,0.,1.));
#184=DIRECTION('',(1.,0.,0.));
#185=DIRECTION('',(0.,0.,1.));
#186=DIRECTION('',(1.,0.,0.));
#187=DIRECTION('',(0.,0.,1.));
#188=DIRECTION('',(1.,0.,0.));
#189=DIRECTION('',(0.,0.,1.));
#190=DIRECTION('',(1.,0.,0.));
#191=DIRECTION('',(0.,0.,-1.));
#192=DIRECTION('',(-1.,0.,0.));
#193=DIRECTION('',(-6.12323399573677E-17,0.,-1.));
#194=DIRECTION('',(-1.,0.,0.));
#195=DIRECTION('',(0.,0.,1.));
#196=DIRECTION('',(-1.,0.,0.));
#197=DIRECTION('',(0.,0.,-1.));
#198=DIRECTION('',(-1.,0.,-3.19098131206886E-14));
#199=DIRECTION('',(0.,0.,-1.));
#200=DIRECTION('',(-1.,0.,0.));
#201=DIRECTION('',(0.,0.,-1.));
#202=DIRECTION('',(-1.,0.,0.));
#203=DIRECTION('',(0.,0.,-1.));
#204=DIRECTION('',(-1.,0.,0.));
#205=DIRECTION('',(0.,0.,-1.));
#206=DIRECTION('',(-1.,0.,3.11782551848054E-17));
#207=DIRECTION('',(0.,0.,1.));
#208=DIRECTION('',(1.,0.,0.));
#209=DIRECTION('',(0.,0.,-1.));
#210=DIRECTION('',(-1.,0.,0.));
#211=DIRECTION('',(0.,0.,-1.));
#212=DIRECTION('',(-1.,0.,0.));
#213=DIRECTION('',(0.,0.,-1.));
#214=DIRECTION('',(-1.,0.,0.));
#215=DIRECTION('',(0.,0.,-1.));
#216=DIRECTION('',(-1.,0.,0.));
#217=DIRECTION('',(0.,0.,-1.));
#218=DIRECTION('',(-1.,0.,0.));
#219=DIRECTION('',(0.,0.,1.));
#220=DIRECTION('',(1.,0.,-1.28992893834448E-16));
#221=DIRECTION('',(0.,0.,-1.));
#222=DIRECTION('',(-1.,0.,0.));
#223=CARTESIAN_POINT('',(0.,0.,0.));
#224=CARTESIAN_POINT('CRP',(-1.,0.,-39.));
#225=CARTESIAN_POINT('',(0.,0.,-35.));
#226=CARTESIAN_POINT('',(0.,0.,-36.3333333333333));
#227=CARTESIAN_POINT('',(0.,0.,-37.6666666666667));
#228=CARTESIAN_POINT('',(-4.13473039871377E-16,0.,-39.));
#229=CARTESIAN_POINT('',(-0.585826970744979,0.,-39.));
#230=CARTESIAN_POINT('',(-1.00005111923965,0.,-38.5857397020518));
#231=CARTESIAN_POINT('',(-0.999999996192281,0.,-37.9999127335375));
#232=CARTESIAN_POINT('',(-0.999912732267941,0.,-36.9999418223583));
#233=CARTESIAN_POINT('',(-0.999825468343595,0.,-35.9999709111792));
#234=CARTESIAN_POINT('',(-0.999738204419252,0.,-35.));
#235=CARTESIAN_POINT('',(-0.666492136279501,0.,-35.));
#236=CARTESIAN_POINT('',(-0.333246068139751,0.,-35.));
#237=CARTESIAN_POINT('',(0.,0.,-35.));
#238=CARTESIAN_POINT('',(0.,0.,-28.));
#239=CARTESIAN_POINT('',(0.,0.,-39.));
#240=CARTESIAN_POINT('',(0.,0.,0.));
#241=CARTESIAN_POINT('',(0.,0.,-37.9999127335375));
#242=CARTESIAN_POINT('',(-0.999999996192282,0.,-37.9999127335375));
#243=CARTESIAN_POINT('',(0.,0.,-38.));
#244=CARTESIAN_POINT('',(0.,0.,-35.));
#245=CARTESIAN_POINT('',(-0.999738204419252,0.,-35.));
#246=CARTESIAN_POINT('',(0.,0.,-37.9999127335375));
#247=CARTESIAN_POINT('',(0.,0.,-35.));
#248=CARTESIAN_POINT('',(0.,0.,0.));
#249=CARTESIAN_POINT('',(-1.2,0.,0.));
#250=CARTESIAN_POINT('',(0.,0.,-0.299999999999998));
#251=CARTESIAN_POINT('',(-1.5,0.,-0.299999999999998));
#252=CARTESIAN_POINT('',(0.,0.,-0.299999999999998));
#253=CARTESIAN_POINT('',(1.2,0.,8.5968480452997E-17));
#254=CARTESIAN_POINT('',(0.,0.,-34.9999986681571));
#255=CARTESIAN_POINT('',(-1.01499999999999,0.,-34.9999986681571));
#256=CARTESIAN_POINT('',(0.999738204419252,0.,-34.9999993340785));
#257=CARTESIAN_POINT('',(0.,0.,-31.317));
#258=CARTESIAN_POINT('',(-1.01499999999999,0.,-31.317));
#259=CARTESIAN_POINT('',(0.,0.,-28.));
#260=CARTESIAN_POINT('',(0.,0.,-29.5069553583291));
#261=CARTESIAN_POINT('',(-1.5,0.,-29.5069553583291));
#262=CARTESIAN_POINT('',(0.,0.,-31.317));
#263=CARTESIAN_POINT('',(0.,0.,-28.));
#264=MECHANICAL_DESIGN_GEOMETRIC_PRESENTATION_REPRESENTATION('',(#143,#144,
#145,#146,#147,#148,#149),#265);
#265=(
GEOMETRIC_REPRESENTATION_CONTEXT(3)
GLOBAL_UNCERTAINTY_ASSIGNED_CONTEXT((#266))
GLOBAL_UNIT_ASSIGNED_CONTEXT((#272,#268,#267))
REPRESENTATION_CONTEXT('C5341-020F2B','TOP_LEVEL_ASSEMBLY_PART')
);
#266=UNCERTAINTY_MEASURE_WITH_UNIT(LENGTH_MEASURE(2.E-5),#272,
'DISTANCE_ACCURACY_VALUE','Maximum Tolerance applied to model');
#267=(
NAMED_UNIT(*)
SI_UNIT($,.STERADIAN.)
SOLID_ANGLE_UNIT()
);
#268=(
CONVERSION_BASED_UNIT('DEGREE',#270)
NAMED_UNIT(#269)
PLANE_ANGLE_UNIT()
);
#269=DIMENSIONAL_EXPONENTS(0.,0.,0.,0.,0.,0.,0.);
#270=PLANE_ANGLE_MEASURE_WITH_UNIT(PLANE_ANGLE_MEASURE(0.0174532925),#271);
#271=(
NAMED_UNIT(*)
PLANE_ANGLE_UNIT()
SI_UNIT($,.RADIAN.)
);
#272=(
LENGTH_UNIT()
NAMED_UNIT(*)
SI_UNIT(.MILLI.,.METRE.)
);
ENDSEC;
END-ISO-10303-21;
