ISO-10303-21;
HEADER;
/* Generated by software containing ST-Developer
 * from STEP Tools, Inc. (www.steptools.com) 
 */
/* OPTION: using custom schema-name function */

FILE_DESCRIPTION(
/* description */ (''),
/* implementation_level */ '2;1');

FILE_NAME(
/* name */ 'C5341-035F3B.0Z4_Basic.stp',
/* time_stamp */ '2024-03-06T11:54:20+05:00',
/* author */ (''),
/* organization */ (''),
/* preprocessor_version */ 'ST-DEVELOPER v16.7',
/* originating_system */ 'SIEMENS PLM Software NX 12.0',
/* authorisation */ '');

FILE_SCHEMA (('AUTOMOTIVE_DESIGN { 1 0 10303 214 3 1 1 1 }'));
ENDSEC;

DATA;
#10=CONSTRUCTIVE_GEOMETRY_REPRESENTATION_RELATIONSHIP(
'supplemental geometry','',#34,#11);
#11=CONSTRUCTIVE_GEOMETRY_REPRESENTATION('supplemental geometry',(#152,
#153,#154),#260);
#12=GEOMETRICALLY_BOUNDED_WIREFRAME_SHAPE_REPRESENTATION(
'inpu6610C15Cwxsc-None',(#35),#260);
#13=PROPERTY_DEFINITION_REPRESENTATION(#17,#15);
#14=PROPERTY_DEFINITION_REPRESENTATION(#18,#16);
#15=REPRESENTATION('',(#19),#260);
#16=REPRESENTATION('',(#20),#260);
#17=PROPERTY_DEFINITION('pmi validation property','',#25);
#18=PROPERTY_DEFINITION('pmi validation property','',#25);
#19=VALUE_REPRESENTATION_ITEM('number of annotations',COUNT_MEASURE(0.));
#20=VALUE_REPRESENTATION_ITEM('number of views',COUNT_MEASURE(0.));
#21=SHAPE_REPRESENTATION_RELATIONSHIP('None',
'relationship between inpu6610C15Cwxsc-None and inpu6610C15Cwxsc-None',
#34,#23);
#22=SHAPE_REPRESENTATION_RELATIONSHIP('None',
'relationship between inpu6610C15Cwxsc-None and inpu6610C15Cwxsc-None',
#34,#12);
#23=ADVANCED_BREP_SHAPE_REPRESENTATION('inpu6610C15Cwxsc-None',(#47,#48),
#260);
#24=SHAPE_DEFINITION_REPRESENTATION(#25,#34);
#25=PRODUCT_DEFINITION_SHAPE('','',#26);
#26=PRODUCT_DEFINITION(' ','',#28,#27);
#27=PRODUCT_DEFINITION_CONTEXT('part definition',#33,'design');
#28=PRODUCT_DEFINITION_FORMATION_WITH_SPECIFIED_SOURCE(' ',' ',#30,
 .NOT_KNOWN.);
#29=PRODUCT_RELATED_PRODUCT_CATEGORY('part','',(#30));
#30=PRODUCT('inpu6610C15Cwxsc','inpu6610C15Cwxsc',' ',(#31));
#31=PRODUCT_CONTEXT(' ',#33,'mechanical');
#32=APPLICATION_PROTOCOL_DEFINITION('international standard',
'automotive_design',2010,#33);
#33=APPLICATION_CONTEXT(
'core data for automotive mechanical design processes');
#34=SHAPE_REPRESENTATION('inpu6610C15Cwxsc-None',(#151),#260);
#35=GEOMETRIC_CURVE_SET('None',(#206,#129));
#36=SPHERICAL_SURFACE('',#165,1.75);
#37=SURFACE_STYLE_USAGE(.BOTH.,#39);
#38=SURFACE_STYLE_USAGE(.BOTH.,#40);
#39=SURFACE_SIDE_STYLE('',(#41));
#40=SURFACE_SIDE_STYLE('',(#42));
#41=SURFACE_STYLE_FILL_AREA(#43);
#42=SURFACE_STYLE_FILL_AREA(#44);
#43=FILL_AREA_STYLE('',(#45));
#44=FILL_AREA_STYLE('',(#46));
#45=FILL_AREA_STYLE_COLOUR('',#149);
#46=FILL_AREA_STYLE_COLOUR('',#150);
#47=MANIFOLD_SOLID_BREP('NOCUT',#49);
#48=MANIFOLD_SOLID_BREP('CUT',#50);
#49=CLOSED_SHELL('',(#60,#61,#62,#63,#64));
#50=CLOSED_SHELL('',(#65,#66,#67));
#51=CYLINDRICAL_SURFACE('',#163,2.);
#52=TOROIDAL_SURFACE('',#162,6.76499999999999,5.);
#53=PLANE('',#158);
#54=PLANE('',#160);
#55=PLANE('',#168);
#56=FACE_OUTER_BOUND('',#80,.T.);
#57=FACE_OUTER_BOUND('',#81,.T.);
#58=FACE_OUTER_BOUND('',#86,.T.);
#59=FACE_OUTER_BOUND('',#89,.T.);
#60=ADVANCED_FACE('',(#70,#71),#68,.T.);
#61=ADVANCED_FACE('',(#56),#53,.T.);
#62=ADVANCED_FACE('',(#57),#54,.T.);
#63=ADVANCED_FACE('',(#72,#73),#52,.F.);
#64=ADVANCED_FACE('',(#74,#75),#51,.T.);
#65=ADVANCED_FACE('',(#58),#36,.T.);
#66=ADVANCED_FACE('',(#76,#77),#69,.T.);
#67=ADVANCED_FACE('',(#59),#55,.F.);
#68=CONICAL_SURFACE('',#157,2.,45.);
#69=CONICAL_SURFACE('',#167,1.74999999333649,0.00500000000000929);
#70=FACE_BOUND('',#78,.T.);
#71=FACE_BOUND('',#79,.T.);
#72=FACE_BOUND('',#82,.T.);
#73=FACE_BOUND('',#83,.T.);
#74=FACE_BOUND('',#84,.T.);
#75=FACE_BOUND('',#85,.T.);
#76=FACE_BOUND('',#87,.T.);
#77=FACE_BOUND('',#88,.T.);
#78=EDGE_LOOP('',(#90));
#79=EDGE_LOOP('',(#91));
#80=EDGE_LOOP('',(#92));
#81=EDGE_LOOP('',(#93));
#82=EDGE_LOOP('',(#94));
#83=EDGE_LOOP('',(#95));
#84=EDGE_LOOP('',(#96));
#85=EDGE_LOOP('',(#97));
#86=EDGE_LOOP('',(#98));
#87=EDGE_LOOP('',(#99));
#88=EDGE_LOOP('',(#100));
#89=EDGE_LOOP('',(#101));
#90=ORIENTED_EDGE('',*,*,#108,.T.);
#91=ORIENTED_EDGE('',*,*,#109,.F.);
#92=ORIENTED_EDGE('',*,*,#108,.F.);
#93=ORIENTED_EDGE('',*,*,#110,.T.);
#94=ORIENTED_EDGE('',*,*,#111,.T.);
#95=ORIENTED_EDGE('',*,*,#110,.F.);
#96=ORIENTED_EDGE('',*,*,#109,.T.);
#97=ORIENTED_EDGE('',*,*,#111,.F.);
#98=ORIENTED_EDGE('',*,*,#112,.T.);
#99=ORIENTED_EDGE('',*,*,#113,.F.);
#100=ORIENTED_EDGE('',*,*,#112,.F.);
#101=ORIENTED_EDGE('',*,*,#113,.T.);
#102=VERTEX_POINT('',#240);
#103=VERTEX_POINT('',#242);
#104=VERTEX_POINT('',#246);
#105=VERTEX_POINT('',#249);
#106=VERTEX_POINT('',#253);
#107=VERTEX_POINT('',#256);
#108=EDGE_CURVE('',#102,#102,#114,.T.);
#109=EDGE_CURVE('',#103,#103,#115,.T.);
#110=EDGE_CURVE('',#104,#104,#116,.T.);
#111=EDGE_CURVE('',#105,#105,#117,.T.);
#112=EDGE_CURVE('',#106,#106,#118,.T.);
#113=EDGE_CURVE('',#107,#107,#119,.T.);
#114=CIRCLE('',#155,1.5);
#115=CIRCLE('',#156,2.);
#116=CIRCLE('',#159,1.765);
#117=CIRCLE('',#161,2.);
#118=CIRCLE('',#164,1.74999999333649);
#119=CIRCLE('',#166,1.74910552541959);
#120=CURVE_STYLE('',#125,POSITIVE_LENGTH_MEASURE(0.18),#124);
#121=CURVE_STYLE('',#126,POSITIVE_LENGTH_MEASURE(0.18),#148);
#122=CURVE_STYLE('',#127,POSITIVE_LENGTH_MEASURE(0.18),#148);
#123=CURVE_STYLE('',#128,POSITIVE_LENGTH_MEASURE(0.18),#148);
#124=DRAUGHTING_PRE_DEFINED_COLOUR('blue');
#125=DRAUGHTING_PRE_DEFINED_CURVE_FONT('continuous');
#126=DRAUGHTING_PRE_DEFINED_CURVE_FONT('continuous');
#127=DRAUGHTING_PRE_DEFINED_CURVE_FONT('continuous');
#128=DRAUGHTING_PRE_DEFINED_CURVE_FONT('continuous');
#129=B_SPLINE_CURVE_WITH_KNOTS('CUTTING PART LINE',3,(#207,#208,#209,#210,
#211,#212,#213,#214,#215,#216,#217,#218,#219,#220,#221,#222,#223,#224,#225,
#226,#227,#228,#229,#230,#231,#232,#233,#234,#235),.UNSPECIFIED.,.T.,.F.,
(4,3,1,1,1,1,1,1,1,1,1,1,1,1,1,1,1,1,1,1,1,3,4),(0.,0.4486316878,0.45505517361875,
0.4614786594375,0.46790214525625,0.474325631075,0.48074911689375,0.4871726027125,
0.49359608853125,0.50001957435,0.50644306016875,0.5128665459875,0.51929003180625,
0.525713517625,0.53213700344375,0.5385604892625,0.54498397508125,0.548195717990625,
0.5514074609,0.552604962541875,0.7430077236,0.9346079863,1.),
 .UNSPECIFIED.);
#130=PRESENTATION_LAYER_ASSIGNMENT('1','Layer 1',(#206,#129,#152,#153,#154,
#47,#48));
#131=STYLED_ITEM('',(#138),#206);
#132=STYLED_ITEM('',(#139),#129);
#133=STYLED_ITEM('',(#140),#152);
#134=STYLED_ITEM('',(#141),#153);
#135=STYLED_ITEM('',(#142),#154);
#136=STYLED_ITEM('',(#143),#47);
#137=STYLED_ITEM('',(#144),#48);
#138=PRESENTATION_STYLE_ASSIGNMENT((#145));
#139=PRESENTATION_STYLE_ASSIGNMENT((#120));
#140=PRESENTATION_STYLE_ASSIGNMENT((#121));
#141=PRESENTATION_STYLE_ASSIGNMENT((#122));
#142=PRESENTATION_STYLE_ASSIGNMENT((#123));
#143=PRESENTATION_STYLE_ASSIGNMENT((#37));
#144=PRESENTATION_STYLE_ASSIGNMENT((#38));
#145=POINT_STYLE('',#146,POSITIVE_LENGTH_MEASURE(3.),#147);
#146=PRE_DEFINED_POINT_MARKER_SYMBOL('plus');
#147=COLOUR_RGB('Medium Royal',0.2,0.4,0.8);
#148=COLOUR_RGB('Pale Maroon',0.811749446860456,0.603921568627451,0.611749446860456);
#149=COLOUR_RGB('Medium Gray',0.490196078431373,0.490196078431373,0.490196078431373);
#150=COLOUR_RGB('Light Gray',0.8,0.8,0.8);
#151=AXIS2_PLACEMENT_3D('',#205,#169,#170);
#152=AXIS2_PLACEMENT_3D('MCS',#236,#171,#172);
#153=AXIS2_PLACEMENT_3D('CIP',#237,#173,#174);
#154=AXIS2_PLACEMENT_3D('PCS',#238,#175,#176);
#155=AXIS2_PLACEMENT_3D('',#239,#177,#178);
#156=AXIS2_PLACEMENT_3D('',#241,#179,#180);
#157=AXIS2_PLACEMENT_3D('',#243,#181,#182);
#158=AXIS2_PLACEMENT_3D('',#244,#183,#184);
#159=AXIS2_PLACEMENT_3D('',#245,#185,#186);
#160=AXIS2_PLACEMENT_3D('',#247,#187,#188);
#161=AXIS2_PLACEMENT_3D('',#248,#189,#190);
#162=AXIS2_PLACEMENT_3D('',#250,#191,#192);
#163=AXIS2_PLACEMENT_3D('',#251,#193,#194);
#164=AXIS2_PLACEMENT_3D('',#252,#195,#196);
#165=AXIS2_PLACEMENT_3D('',#254,#197,#198);
#166=AXIS2_PLACEMENT_3D('',#255,#199,#200);
#167=AXIS2_PLACEMENT_3D('',#257,#201,#202);
#168=AXIS2_PLACEMENT_3D('',#258,#203,#204);
#169=DIRECTION('',(0.,0.,1.));
#170=DIRECTION('',(1.,0.,0.));
#171=DIRECTION('',(0.,0.,1.));
#172=DIRECTION('',(1.,0.,0.));
#173=DIRECTION('',(0.,0.,1.));
#174=DIRECTION('',(1.,0.,0.));
#175=DIRECTION('',(0.,0.,1.));
#176=DIRECTION('',(1.,0.,0.));
#177=DIRECTION('',(0.,0.,-1.));
#178=DIRECTION('',(-1.,0.,0.));
#179=DIRECTION('',(0.,0.,-1.));
#180=DIRECTION('',(-1.,0.,0.));
#181=DIRECTION('',(0.,0.,-1.));
#182=DIRECTION('',(-1.,0.,5.54003505301974E-17));
#183=DIRECTION('',(0.,0.,1.));
#184=DIRECTION('',(1.,0.,0.));
#185=DIRECTION('',(0.,0.,-1.));
#186=DIRECTION('',(-1.,0.,0.));
#187=DIRECTION('',(0.,0.,-1.));
#188=DIRECTION('',(-1.,0.,0.));
#189=DIRECTION('',(0.,0.,-1.));
#190=DIRECTION('',(-1.,0.,0.));
#191=DIRECTION('',(0.,0.,-1.));
#192=DIRECTION('',(-1.,0.,0.));
#193=DIRECTION('',(0.,0.,-1.));
#194=DIRECTION('',(-1.,0.,0.));
#195=DIRECTION('',(0.,0.,-1.));
#196=DIRECTION('',(-1.,0.,0.));
#197=DIRECTION('',(-6.12323399573677E-17,0.,-1.));
#198=DIRECTION('',(-1.,0.,0.));
#199=DIRECTION('',(0.,0.,1.));
#200=DIRECTION('',(-1.,0.,0.));
#201=DIRECTION('',(0.,0.,-1.));
#202=DIRECTION('',(-1.,0.,5.2874483354935E-14));
#203=DIRECTION('',(0.,0.,-1.));
#204=DIRECTION('',(-1.,0.,0.));
#205=CARTESIAN_POINT('',(0.,0.,0.));
#206=CARTESIAN_POINT('CRP',(-1.75,0.,-50.));
#207=CARTESIAN_POINT('',(0.,0.,-38.));
#208=CARTESIAN_POINT('',(0.,0.,-42.));
#209=CARTESIAN_POINT('',(-2.41192606591637E-16,0.,-46.));
#210=CARTESIAN_POINT('',(-7.23577819774912E-16,0.,-50.));
#211=CARTESIAN_POINT('',(-0.057271797670847,0.,-50.));
#212=CARTESIAN_POINT('',(-0.171815303933171,0.,-49.9943725208973));
#213=CARTESIAN_POINT('',(-0.341975749700842,0.,-49.9691301847667));
#214=CARTESIAN_POINT('',(-0.508842414700693,0.,-49.9273298385599));
#215=CARTESIAN_POINT('',(-0.670808107512675,0.,-49.8693741039217));
#216=CARTESIAN_POINT('',(-0.826312831002038,0.,-49.7958211719487));
#217=CARTESIAN_POINT('',(-0.973858830811937,0.,-49.7073794918265));
#218=CARTESIAN_POINT('',(-1.11202499151514,0.,-49.6049008851519));
#219=CARTESIAN_POINT('',(-1.23948056043784,0.,-49.489372399996));
#220=CARTESIAN_POINT('',(-1.35499792233866,0.,-49.3619067500409));
#221=CARTESIAN_POINT('',(-1.45746447145684,0.,-49.2237316468107));
#222=CARTESIAN_POINT('',(-1.54589327542232,0.,-49.0761779295855));
#223=CARTESIAN_POINT('',(-1.619432636792,0.,-48.9206667879445));
#224=CARTESIAN_POINT('',(-1.67737423705687,0.,-48.7586960381175));
#225=CARTESIAN_POINT('',(-1.71916002125974,0.,-48.5918257258878));
#226=CARTESIAN_POINT('',(-1.74018292686572,0.,-48.4500235191831));
#227=CARTESIAN_POINT('',(-1.74860062042949,0.,-48.3357550803181));
#228=CARTESIAN_POINT('',(-1.75013269876208,0.,-48.2678062488143));
#229=CARTESIAN_POINT('',(-1.74984998361293,0.,-46.5308624788217));
#230=CARTESIAN_POINT('',(-1.74955182764063,0.,-43.1142467175915));
#231=CARTESIAN_POINT('',(-1.74925460340574,0.,-39.7083078806151));
#232=CARTESIAN_POINT('',(-1.74910552541959,0.,-38.));
#233=CARTESIAN_POINT('',(-1.16607035027973,0.,-38.));
#234=CARTESIAN_POINT('',(-0.583035175139862,0.,-38.));
#235=CARTESIAN_POINT('',(0.,0.,-38.));
#236=CARTESIAN_POINT('',(0.,0.,-25.));
#237=CARTESIAN_POINT('',(0.,0.,-50.));
#238=CARTESIAN_POINT('',(0.,0.,0.));
#239=CARTESIAN_POINT('',(0.,0.,0.));
#240=CARTESIAN_POINT('',(-1.5,0.,0.));
#241=CARTESIAN_POINT('',(0.,0.,-0.5));
#242=CARTESIAN_POINT('',(-2.,0.,-0.5));
#243=CARTESIAN_POINT('',(0.,0.,-0.5));
#244=CARTESIAN_POINT('',(1.5,0.,3.31837406576684E-17));
#245=CARTESIAN_POINT('',(0.,0.,-37.9999986129454));
#246=CARTESIAN_POINT('',(-1.765,0.,-37.9999986129454));
#247=CARTESIAN_POINT('',(1.74910552541959,0.,-37.9999993064727));
#248=CARTESIAN_POINT('',(0.,0.,-36.4851485221316));
#249=CARTESIAN_POINT('',(-2.,0.,-36.4851485221316));
#250=CARTESIAN_POINT('',(0.,0.,-38.));
#251=CARTESIAN_POINT('',(0.,0.,-25.));
#252=CARTESIAN_POINT('',(0.,0.,-48.2498472836906));
#253=CARTESIAN_POINT('',(-1.74999999333649,0.,-48.2498472836906));
#254=CARTESIAN_POINT('',(0.,0.,-48.25));
#255=CARTESIAN_POINT('',(0.,0.,-38.));
#256=CARTESIAN_POINT('',(-1.74910552541959,0.,-38.));
#257=CARTESIAN_POINT('',(0.,0.,-48.2498472836906));
#258=CARTESIAN_POINT('',(0.,0.,-38.));
#259=MECHANICAL_DESIGN_GEOMETRIC_PRESENTATION_REPRESENTATION('',(#131,#132,
#133,#134,#135,#136,#137),#260);
#260=(
GEOMETRIC_REPRESENTATION_CONTEXT(3)
GLOBAL_UNCERTAINTY_ASSIGNED_CONTEXT((#261))
GLOBAL_UNIT_ASSIGNED_CONTEXT((#267,#263,#262))
REPRESENTATION_CONTEXT('C5341-035F3B','TOP_LEVEL_ASSEMBLY_PART')
);
#261=UNCERTAINTY_MEASURE_WITH_UNIT(LENGTH_MEASURE(2.E-5),#267,
'DISTANCE_ACCURACY_VALUE','Maximum Tolerance applied to model');
#262=(
NAMED_UNIT(*)
SI_UNIT($,.STERADIAN.)
SOLID_ANGLE_UNIT()
);
#263=(
CONVERSION_BASED_UNIT('DEGREE',#265)
NAMED_UNIT(#264)
PLANE_ANGLE_UNIT()
);
#264=DIMENSIONAL_EXPONENTS(0.,0.,0.,0.,0.,0.,0.);
#265=PLANE_ANGLE_MEASURE_WITH_UNIT(PLANE_ANGLE_MEASURE(0.0174532925),#266);
#266=(
NAMED_UNIT(*)
PLANE_ANGLE_UNIT()
SI_UNIT($,.RADIAN.)
);
#267=(
LENGTH_UNIT()
NAMED_UNIT(*)
SI_UNIT(.MILLI.,.METRE.)
);
ENDSEC;
END-ISO-10303-21;
