ISO-10303-21;
HEADER;
/* Generated by software containing ST-Developer
 * from STEP Tools, Inc. (www.steptools.com) 
 */
/* OPTION: using custom schema-name function */

FILE_DESCRIPTION(
/* description */ (''),
/* implementation_level */ '2;1');

FILE_NAME(
/* name */ 'C5341-060D3B.0Z4_Basic.stp',
/* time_stamp */ '2024-08-16T15:03:50+06:00',
/* author */ (''),
/* organization */ (''),
/* preprocessor_version */ 'ST-DEVELOPER v16.7',
/* originating_system */ 'SIEMENS PLM Software NX 12.0',
/* authorisation */ '');

FILE_SCHEMA (('AUTOMOTIVE_DESIGN { 1 0 10303 214 3 1 1 1 }'));
ENDSEC;

DATA;
#10=CONSTRUCTIVE_GEOMETRY_REPRESENTATION_RELATIONSHIP(
'supplemental geometry','',#34,#11);
#11=CONSTRUCTIVE_GEOMETRY_REPRESENTATION('supplemental geometry',(#154,
#155,#156),#240);
#12=GEOMETRICALLY_BOUNDED_WIREFRAME_SHAPE_REPRESENTATION(
'inpu1F0CA168ahxl-None',(#35),#240);
#13=PROPERTY_DEFINITION_REPRESENTATION(#17,#15);
#14=PROPERTY_DEFINITION_REPRESENTATION(#18,#16);
#15=REPRESENTATION('',(#19),#240);
#16=REPRESENTATION('',(#20),#240);
#17=PROPERTY_DEFINITION('pmi validation property','',#25);
#18=PROPERTY_DEFINITION('pmi validation property','',#25);
#19=VALUE_REPRESENTATION_ITEM('number of annotations',COUNT_MEASURE(0.));
#20=VALUE_REPRESENTATION_ITEM('number of views',COUNT_MEASURE(0.));
#21=SHAPE_REPRESENTATION_RELATIONSHIP('None',
'relationship between inpu1F0CA168ahxl-None and inpu1F0CA168ahxl-None',
#34,#23);
#22=SHAPE_REPRESENTATION_RELATIONSHIP('None',
'relationship between inpu1F0CA168ahxl-None and inpu1F0CA168ahxl-None',
#34,#12);
#23=ADVANCED_BREP_SHAPE_REPRESENTATION('inpu1F0CA168ahxl-None',(#47,#48),
#240);
#24=SHAPE_DEFINITION_REPRESENTATION(#25,#34);
#25=PRODUCT_DEFINITION_SHAPE('','',#26);
#26=PRODUCT_DEFINITION(' ','',#28,#27);
#27=PRODUCT_DEFINITION_CONTEXT('part definition',#33,'design');
#28=PRODUCT_DEFINITION_FORMATION_WITH_SPECIFIED_SOURCE(' ',' ',#30,
 .NOT_KNOWN.);
#29=PRODUCT_RELATED_PRODUCT_CATEGORY('part','',(#30));
#30=PRODUCT('inpu1F0CA168ahxl','inpu1F0CA168ahxl',' ',(#31));
#31=PRODUCT_CONTEXT(' ',#33,'mechanical');
#32=APPLICATION_PROTOCOL_DEFINITION('international standard',
'automotive_design',2010,#33);
#33=APPLICATION_CONTEXT(
'core data for automotive mechanical design processes');
#34=SHAPE_REPRESENTATION('inpu1F0CA168ahxl-None',(#153),#240);
#35=GEOMETRIC_CURVE_SET('None',(#202,#203,#204,#205,#118));
#36=CYLINDRICAL_SURFACE('',#168,3.);
#37=SURFACE_STYLE_USAGE(.BOTH.,#39);
#38=SURFACE_STYLE_USAGE(.BOTH.,#40);
#39=SURFACE_SIDE_STYLE('',(#41));
#40=SURFACE_SIDE_STYLE('',(#42));
#41=SURFACE_STYLE_FILL_AREA(#43);
#42=SURFACE_STYLE_FILL_AREA(#44);
#43=FILL_AREA_STYLE('',(#45));
#44=FILL_AREA_STYLE('',(#46));
#45=FILL_AREA_STYLE_COLOUR('',#151);
#46=FILL_AREA_STYLE_COLOUR('',#152);
#47=MANIFOLD_SOLID_BREP('CUT',#49);
#48=MANIFOLD_SOLID_BREP('NOCUT',#50);
#49=CLOSED_SHELL('',(#62,#63,#64));
#50=CLOSED_SHELL('',(#65,#66,#67,#68));
#51=PLANE('',#161);
#52=PLANE('',#165);
#53=PLANE('',#167);
#54=CONICAL_SURFACE('',#160,2.99999998857685,0.00500000000000549);
#55=CONICAL_SURFACE('',#164,3.,45.);
#56=FACE_BOUND('',#75,.T.);
#57=FACE_BOUND('',#76,.T.);
#58=FACE_BOUND('',#78,.T.);
#59=FACE_BOUND('',#79,.T.);
#60=FACE_BOUND('',#82,.T.);
#61=FACE_BOUND('',#83,.T.);
#62=ADVANCED_FACE('',(#70),#69,.T.);
#63=ADVANCED_FACE('',(#56,#57),#54,.T.);
#64=ADVANCED_FACE('',(#71),#51,.F.);
#65=ADVANCED_FACE('',(#58,#59),#55,.T.);
#66=ADVANCED_FACE('',(#72),#52,.T.);
#67=ADVANCED_FACE('',(#73),#53,.T.);
#68=ADVANCED_FACE('',(#60,#61),#36,.T.);
#69=SPHERICAL_SURFACE('',#158,3.);
#70=FACE_OUTER_BOUND('',#74,.T.);
#71=FACE_OUTER_BOUND('',#77,.T.);
#72=FACE_OUTER_BOUND('',#80,.T.);
#73=FACE_OUTER_BOUND('',#81,.T.);
#74=EDGE_LOOP('',(#84));
#75=EDGE_LOOP('',(#85));
#76=EDGE_LOOP('',(#86));
#77=EDGE_LOOP('',(#87));
#78=EDGE_LOOP('',(#88));
#79=EDGE_LOOP('',(#89));
#80=EDGE_LOOP('',(#90));
#81=EDGE_LOOP('',(#91));
#82=EDGE_LOOP('',(#92));
#83=EDGE_LOOP('',(#93));
#84=ORIENTED_EDGE('',*,*,#99,.T.);
#85=ORIENTED_EDGE('',*,*,#100,.F.);
#86=ORIENTED_EDGE('',*,*,#99,.F.);
#87=ORIENTED_EDGE('',*,*,#100,.T.);
#88=ORIENTED_EDGE('',*,*,#101,.T.);
#89=ORIENTED_EDGE('',*,*,#102,.F.);
#90=ORIENTED_EDGE('',*,*,#101,.F.);
#91=ORIENTED_EDGE('',*,*,#103,.T.);
#92=ORIENTED_EDGE('',*,*,#102,.T.);
#93=ORIENTED_EDGE('',*,*,#103,.F.);
#94=VERTEX_POINT('',#223);
#95=VERTEX_POINT('',#226);
#96=VERTEX_POINT('',#230);
#97=VERTEX_POINT('',#232);
#98=VERTEX_POINT('',#236);
#99=EDGE_CURVE('',#94,#94,#104,.T.);
#100=EDGE_CURVE('',#95,#95,#105,.T.);
#101=EDGE_CURVE('',#96,#96,#106,.T.);
#102=EDGE_CURVE('',#97,#97,#107,.T.);
#103=EDGE_CURVE('',#98,#98,#108,.T.);
#104=CIRCLE('',#157,2.99999998857685);
#105=CIRCLE('',#159,2.99860374801801);
#106=CIRCLE('',#162,2.5);
#107=CIRCLE('',#163,3.);
#108=CIRCLE('',#166,3.);
#109=CURVE_STYLE('',#114,POSITIVE_LENGTH_MEASURE(0.18),#113);
#110=CURVE_STYLE('',#115,POSITIVE_LENGTH_MEASURE(0.18),#150);
#111=CURVE_STYLE('',#116,POSITIVE_LENGTH_MEASURE(0.18),#150);
#112=CURVE_STYLE('',#117,POSITIVE_LENGTH_MEASURE(0.18),#150);
#113=DRAUGHTING_PRE_DEFINED_COLOUR('blue');
#114=DRAUGHTING_PRE_DEFINED_CURVE_FONT('continuous');
#115=DRAUGHTING_PRE_DEFINED_CURVE_FONT('continuous');
#116=DRAUGHTING_PRE_DEFINED_CURVE_FONT('continuous');
#117=DRAUGHTING_PRE_DEFINED_CURVE_FONT('continuous');
#118=TRIMMED_CURVE('CUTTING PART LINE',#119,(PARAMETER_VALUE(0.)),(
PARAMETER_VALUE(1.)),.T.,.PARAMETER.);
#119=(
BOUNDED_CURVE()
B_SPLINE_CURVE(3,(#206,#207,#208,#209,#210,#211,#212,#213,#214,#215,#216,
#217,#218),.UNSPECIFIED.,.T.,.F.)
B_SPLINE_CURVE_WITH_KNOTS((1,3,3,3,3,3,1),(-0.070206837916567,0.,0.444850347865219,
0.55518847095616,0.929793162083433,1.,1.44485034786522),.UNSPECIFIED.)
CURVE()
GEOMETRIC_REPRESENTATION_ITEM()
RATIONAL_B_SPLINE_CURVE((1.,1.,1.,1.,0.804717284773136,0.804717284773136,
1.,1.,1.,1.,1.,1.,1.))
REPRESENTATION_ITEM('CUTTING PART LINE')
);
#120=PRESENTATION_LAYER_ASSIGNMENT('1','Layer 1',(#202,#203,#204,#205,#118,
#154,#155,#156,#47,#48));
#121=STYLED_ITEM('',(#131),#202);
#122=STYLED_ITEM('',(#132),#203);
#123=STYLED_ITEM('',(#133),#204);
#124=STYLED_ITEM('',(#134),#205);
#125=STYLED_ITEM('',(#135),#118);
#126=STYLED_ITEM('',(#136),#154);
#127=STYLED_ITEM('',(#137),#155);
#128=STYLED_ITEM('',(#138),#156);
#129=STYLED_ITEM('',(#139),#47);
#130=STYLED_ITEM('',(#140),#48);
#131=PRESENTATION_STYLE_ASSIGNMENT((#141));
#132=PRESENTATION_STYLE_ASSIGNMENT((#142));
#133=PRESENTATION_STYLE_ASSIGNMENT((#143));
#134=PRESENTATION_STYLE_ASSIGNMENT((#144));
#135=PRESENTATION_STYLE_ASSIGNMENT((#109));
#136=PRESENTATION_STYLE_ASSIGNMENT((#110));
#137=PRESENTATION_STYLE_ASSIGNMENT((#111));
#138=PRESENTATION_STYLE_ASSIGNMENT((#112));
#139=PRESENTATION_STYLE_ASSIGNMENT((#37));
#140=PRESENTATION_STYLE_ASSIGNMENT((#38));
#141=POINT_STYLE('',#145,POSITIVE_LENGTH_MEASURE(3.),#149);
#142=POINT_STYLE('',#146,POSITIVE_LENGTH_MEASURE(3.),#150);
#143=POINT_STYLE('',#147,POSITIVE_LENGTH_MEASURE(3.),#150);
#144=POINT_STYLE('',#148,POSITIVE_LENGTH_MEASURE(3.),#150);
#145=PRE_DEFINED_POINT_MARKER_SYMBOL('plus');
#146=PRE_DEFINED_POINT_MARKER_SYMBOL('plus');
#147=PRE_DEFINED_POINT_MARKER_SYMBOL('plus');
#148=PRE_DEFINED_POINT_MARKER_SYMBOL('plus');
#149=COLOUR_RGB('Pale Royal',0.219592584115358,0.470572976272221,0.752941176470588);
#150=COLOUR_RGB('Pale Maroon',0.811749446860456,0.603921568627451,0.611749446860456);
#151=COLOUR_RGB('Light Gray',0.8,0.8,0.8);
#152=COLOUR_RGB('Medium Gray',0.490196078431373,0.490196078431373,0.490196078431373);
#153=AXIS2_PLACEMENT_3D('',#201,#169,#170);
#154=AXIS2_PLACEMENT_3D('MCS',#219,#171,#172);
#155=AXIS2_PLACEMENT_3D('CIP',#220,#173,#174);
#156=AXIS2_PLACEMENT_3D('PCS',#221,#175,#176);
#157=AXIS2_PLACEMENT_3D('',#222,#177,#178);
#158=AXIS2_PLACEMENT_3D('',#224,#179,#180);
#159=AXIS2_PLACEMENT_3D('',#225,#181,#182);
#160=AXIS2_PLACEMENT_3D('',#227,#183,#184);
#161=AXIS2_PLACEMENT_3D('',#228,#185,#186);
#162=AXIS2_PLACEMENT_3D('',#229,#187,#188);
#163=AXIS2_PLACEMENT_3D('',#231,#189,#190);
#164=AXIS2_PLACEMENT_3D('',#233,#191,#192);
#165=AXIS2_PLACEMENT_3D('',#234,#193,#194);
#166=AXIS2_PLACEMENT_3D('',#235,#195,#196);
#167=AXIS2_PLACEMENT_3D('',#237,#197,#198);
#168=AXIS2_PLACEMENT_3D('',#238,#199,#200);
#169=DIRECTION('',(0.,0.,1.));
#170=DIRECTION('',(1.,0.,0.));
#171=DIRECTION('',(0.,0.,1.));
#172=DIRECTION('',(1.,0.,0.));
#173=DIRECTION('',(0.,0.,1.));
#174=DIRECTION('',(1.,0.,0.));
#175=DIRECTION('',(0.,0.,1.));
#176=DIRECTION('',(1.,0.,0.));
#177=DIRECTION('',(0.,0.,-1.));
#178=DIRECTION('',(-1.,0.,0.));
#179=DIRECTION('',(-3.69778549322349E-32,0.,-1.));
#180=DIRECTION('',(1.,0.,0.));
#181=DIRECTION('',(0.,0.,1.));
#182=DIRECTION('',(-1.,0.,0.));
#183=DIRECTION('',(0.,0.,-1.));
#184=DIRECTION('',(1.,0.,-1.34855102657524E-14));
#185=DIRECTION('',(0.,0.,-1.));
#186=DIRECTION('',(1.,0.,0.));
#187=DIRECTION('',(0.,0.,-1.));
#188=DIRECTION('',(-1.,0.,0.));
#189=DIRECTION('',(0.,0.,-1.));
#190=DIRECTION('',(-1.,0.,0.));
#191=DIRECTION('',(0.,0.,-1.));
#192=DIRECTION('',(1.,0.,5.49127321657663E-17));
#193=DIRECTION('',(0.,0.,1.));
#194=DIRECTION('',(-1.,0.,0.));
#195=DIRECTION('',(0.,0.,-1.));
#196=DIRECTION('',(-1.,0.,0.));
#197=DIRECTION('',(0.,0.,-1.));
#198=DIRECTION('',(1.,0.,0.));
#199=DIRECTION('',(0.,0.,-1.));
#200=DIRECTION('',(1.,0.,0.));
#201=CARTESIAN_POINT('',(0.,0.,0.));
#202=CARTESIAN_POINT('CRP',(-3.,0.,-51.));
#203=CARTESIAN_POINT('',(0.,0.,-25.));
#204=CARTESIAN_POINT('',(0.,0.,-51.));
#205=CARTESIAN_POINT('',(0.,0.,0.));
#206=CARTESIAN_POINT('',(0.,0.,-32.));
#207=CARTESIAN_POINT('',(0.,0.,-38.3333333333333));
#208=CARTESIAN_POINT('',(0.,0.,-44.6666666666667));
#209=CARTESIAN_POINT('',(9.18485099360521E-17,0.,-51.));
#210=CARTESIAN_POINT('',(-1.75748091223494,0.,-51.));
#211=CARTESIAN_POINT('',(-3.00015335771894,0.,-49.7572191061555));
#212=CARTESIAN_POINT('',(-2.99999998857684,0.,-47.9997382006125));
#213=CARTESIAN_POINT('',(-2.99953457505723,0.,-42.6664921337417));
#214=CARTESIAN_POINT('',(-2.99906916153762,0.,-37.3332460668708));
#215=CARTESIAN_POINT('',(-2.99860374801801,0.,-32.));
#216=CARTESIAN_POINT('',(-1.99906916534534,0.,-32.));
#217=CARTESIAN_POINT('',(-0.999534582672669,0.,-32.));
#218=CARTESIAN_POINT('',(0.,0.,-32.));
#219=CARTESIAN_POINT('',(0.,0.,-25.));
#220=CARTESIAN_POINT('',(0.,0.,-51.));
#221=CARTESIAN_POINT('',(0.,0.,0.));
#222=CARTESIAN_POINT('',(0.,0.,-47.9997382006125));
#223=CARTESIAN_POINT('',(-2.99999998857685,0.,-47.9997382006125));
#224=CARTESIAN_POINT('',(0.,0.,-48.));
#225=CARTESIAN_POINT('',(0.,0.,-32.));
#226=CARTESIAN_POINT('',(-2.99860374801801,0.,-32.));
#227=CARTESIAN_POINT('',(0.,0.,-47.9997382006125));
#228=CARTESIAN_POINT('',(0.,0.,-32.));
#229=CARTESIAN_POINT('',(0.,0.,0.));
#230=CARTESIAN_POINT('',(-2.5,0.,0.));
#231=CARTESIAN_POINT('',(0.,0.,-0.5));
#232=CARTESIAN_POINT('',(-3.,0.,-0.5));
#233=CARTESIAN_POINT('',(0.,0.,-0.5));
#234=CARTESIAN_POINT('',(2.5,0.,7.02993769235648E-17));
#235=CARTESIAN_POINT('',(0.,0.,-31.999999878154));
#236=CARTESIAN_POINT('',(-3.,0.,-31.999999878154));
#237=CARTESIAN_POINT('',(2.99860374801801,0.,-31.999999939077));
#238=CARTESIAN_POINT('',(0.,0.,-36.));
#239=MECHANICAL_DESIGN_GEOMETRIC_PRESENTATION_REPRESENTATION('',(#121,#122,
#123,#124,#125,#126,#127,#128,#129,#130),#240);
#240=(
GEOMETRIC_REPRESENTATION_CONTEXT(3)
GLOBAL_UNCERTAINTY_ASSIGNED_CONTEXT((#241))
GLOBAL_UNIT_ASSIGNED_CONTEXT((#247,#243,#242))
REPRESENTATION_CONTEXT('C5341-060D3B','TOP_LEVEL_ASSEMBLY_PART')
);
#241=UNCERTAINTY_MEASURE_WITH_UNIT(LENGTH_MEASURE(2.E-5),#247,
'DISTANCE_ACCURACY_VALUE','Maximum Tolerance applied to model');
#242=(
NAMED_UNIT(*)
SI_UNIT($,.STERADIAN.)
SOLID_ANGLE_UNIT()
);
#243=(
CONVERSION_BASED_UNIT('DEGREE',#245)
NAMED_UNIT(#244)
PLANE_ANGLE_UNIT()
);
#244=DIMENSIONAL_EXPONENTS(0.,0.,0.,0.,0.,0.,0.);
#245=PLANE_ANGLE_MEASURE_WITH_UNIT(PLANE_ANGLE_MEASURE(0.0174532925),#246);
#246=(
NAMED_UNIT(*)
PLANE_ANGLE_UNIT()
SI_UNIT($,.RADIAN.)
);
#247=(
LENGTH_UNIT()
NAMED_UNIT(*)
SI_UNIT(.MILLI.,.METRE.)
);
ENDSEC;
END-ISO-10303-21;
