ISO-10303-21;
HEADER;
/* Generated by software containing ST-Developer
 * from STEP Tools, Inc. (www.steptools.com) 
 */
/* OPTION: using custom schema-name function */

FILE_DESCRIPTION(
/* description */ (''),
/* implementation_level */ '2;1');

FILE_NAME(
/* name */ 'JS565100D4C.0Z5C-NXT_Basic.stp',
/* time_stamp */ '2024-05-22T10:10:40+06:00',
/* author */ (''),
/* organization */ (''),
/* preprocessor_version */ 'ST-DEVELOPER v16.7',
/* originating_system */ 'SIEMENS PLM Software NX 12.0',
/* authorisation */ '');

FILE_SCHEMA (('AUTOMOTIVE_DESIGN { 1 0 10303 214 3 1 1 1 }'));
ENDSEC;

DATA;
#10=CONSTRUCTIVE_GEOMETRY_REPRESENTATION_RELATIONSHIP(
'supplemental geometry','',#34,#11);
#11=CONSTRUCTIVE_GEOMETRY_REPRESENTATION('supplemental geometry',(#174,
#175,#176),#287);
#12=GEOMETRICALLY_BOUNDED_WIREFRAME_SHAPE_REPRESENTATION(
'inpu56149FCEvex7-None',(#35),#287);
#13=PROPERTY_DEFINITION_REPRESENTATION(#17,#15);
#14=PROPERTY_DEFINITION_REPRESENTATION(#18,#16);
#15=REPRESENTATION('',(#19),#287);
#16=REPRESENTATION('',(#20),#287);
#17=PROPERTY_DEFINITION('pmi validation property','',#25);
#18=PROPERTY_DEFINITION('pmi validation property','',#25);
#19=VALUE_REPRESENTATION_ITEM('number of annotations',COUNT_MEASURE(0.));
#20=VALUE_REPRESENTATION_ITEM('number of views',COUNT_MEASURE(0.));
#21=SHAPE_REPRESENTATION_RELATIONSHIP('None',
'relationship between inpu56149FCEvex7-None and inpu56149FCEvex7-None',
#34,#23);
#22=SHAPE_REPRESENTATION_RELATIONSHIP('None',
'relationship between inpu56149FCEvex7-None and inpu56149FCEvex7-None',
#34,#12);
#23=ADVANCED_BREP_SHAPE_REPRESENTATION('inpu56149FCEvex7-None',(#46,#47),
#287);
#24=SHAPE_DEFINITION_REPRESENTATION(#25,#34);
#25=PRODUCT_DEFINITION_SHAPE('','',#26);
#26=PRODUCT_DEFINITION(' ','',#28,#27);
#27=PRODUCT_DEFINITION_CONTEXT('part definition',#33,'design');
#28=PRODUCT_DEFINITION_FORMATION_WITH_SPECIFIED_SOURCE(' ',' ',#30,
 .NOT_KNOWN.);
#29=PRODUCT_RELATED_PRODUCT_CATEGORY('part','',(#30));
#30=PRODUCT('inpu56149FCEvex7','inpu56149FCEvex7',' ',(#31));
#31=PRODUCT_CONTEXT(' ',#33,'mechanical');
#32=APPLICATION_PROTOCOL_DEFINITION('international standard',
'automotive_design',2010,#33);
#33=APPLICATION_CONTEXT(
'core data for automotive mechanical design processes');
#34=SHAPE_REPRESENTATION('inpu56149FCEvex7-None',(#173),#287);
#35=GEOMETRIC_CURVE_SET('None',(#240,#151));
#36=SURFACE_STYLE_USAGE(.BOTH.,#38);
#37=SURFACE_STYLE_USAGE(.BOTH.,#39);
#38=SURFACE_SIDE_STYLE('',(#40));
#39=SURFACE_SIDE_STYLE('',(#41));
#40=SURFACE_STYLE_FILL_AREA(#42);
#41=SURFACE_STYLE_FILL_AREA(#43);
#42=FILL_AREA_STYLE('',(#44));
#43=FILL_AREA_STYLE('',(#45));
#44=FILL_AREA_STYLE_COLOUR('',#171);
#45=FILL_AREA_STYLE_COLOUR('',#172);
#46=MANIFOLD_SOLID_BREP('NOCUT',#48);
#47=MANIFOLD_SOLID_BREP('CUT',#49);
#48=CLOSED_SHELL('',(#61,#62,#63,#64));
#49=CLOSED_SHELL('',(#65,#66,#67,#68,#69,#70));
#50=CYLINDRICAL_SURFACE('',#183,5.);
#51=CYLINDRICAL_SURFACE('',#193,0.5);
#52=PLANE('',#180);
#53=PLANE('',#182);
#54=PLANE('',#186);
#55=PLANE('',#191);
#56=PLANE('',#194);
#57=FACE_OUTER_BOUND('',#88,.T.);
#58=FACE_OUTER_BOUND('',#89,.T.);
#59=FACE_OUTER_BOUND('',#98,.T.);
#60=FACE_OUTER_BOUND('',#101,.T.);
#61=ADVANCED_FACE('',(#74,#75),#71,.T.);
#62=ADVANCED_FACE('',(#57),#52,.T.);
#63=ADVANCED_FACE('',(#58),#53,.T.);
#64=ADVANCED_FACE('',(#76,#77),#50,.T.);
#65=ADVANCED_FACE('',(#78,#79),#54,.T.);
#66=ADVANCED_FACE('',(#80,#81),#72,.T.);
#67=ADVANCED_FACE('',(#82,#83),#73,.T.);
#68=ADVANCED_FACE('',(#59),#55,.F.);
#69=ADVANCED_FACE('',(#84,#85),#51,.F.);
#70=ADVANCED_FACE('',(#60),#56,.T.);
#71=CONICAL_SURFACE('',#179,5.,44.9999999999998);
#72=CONICAL_SURFACE('',#188,4.875,45.0000000000004);
#73=CONICAL_SURFACE('',#190,5.,0.00500000000000408);
#74=FACE_BOUND('',#86,.T.);
#75=FACE_BOUND('',#87,.T.);
#76=FACE_BOUND('',#90,.T.);
#77=FACE_BOUND('',#91,.T.);
#78=FACE_BOUND('',#92,.T.);
#79=FACE_BOUND('',#93,.T.);
#80=FACE_BOUND('',#94,.T.);
#81=FACE_BOUND('',#95,.T.);
#82=FACE_BOUND('',#96,.T.);
#83=FACE_BOUND('',#97,.T.);
#84=FACE_BOUND('',#99,.T.);
#85=FACE_BOUND('',#100,.T.);
#86=EDGE_LOOP('',(#102));
#87=EDGE_LOOP('',(#103));
#88=EDGE_LOOP('',(#104));
#89=EDGE_LOOP('',(#105));
#90=EDGE_LOOP('',(#106));
#91=EDGE_LOOP('',(#107));
#92=EDGE_LOOP('',(#108));
#93=EDGE_LOOP('',(#109));
#94=EDGE_LOOP('',(#110));
#95=EDGE_LOOP('',(#111));
#96=EDGE_LOOP('',(#112));
#97=EDGE_LOOP('',(#113));
#98=EDGE_LOOP('',(#114));
#99=EDGE_LOOP('',(#115));
#100=EDGE_LOOP('',(#116));
#101=EDGE_LOOP('',(#117));
#102=ORIENTED_EDGE('',*,*,#126,.T.);
#103=ORIENTED_EDGE('',*,*,#127,.F.);
#104=ORIENTED_EDGE('',*,*,#126,.F.);
#105=ORIENTED_EDGE('',*,*,#128,.T.);
#106=ORIENTED_EDGE('',*,*,#127,.T.);
#107=ORIENTED_EDGE('',*,*,#128,.F.);
#108=ORIENTED_EDGE('',*,*,#129,.F.);
#109=ORIENTED_EDGE('',*,*,#130,.T.);
#110=ORIENTED_EDGE('',*,*,#131,.T.);
#111=ORIENTED_EDGE('',*,*,#130,.F.);
#112=ORIENTED_EDGE('',*,*,#132,.T.);
#113=ORIENTED_EDGE('',*,*,#131,.F.);
#114=ORIENTED_EDGE('',*,*,#132,.F.);
#115=ORIENTED_EDGE('',*,*,#133,.T.);
#116=ORIENTED_EDGE('',*,*,#129,.T.);
#117=ORIENTED_EDGE('',*,*,#133,.F.);
#118=VERTEX_POINT('',#261);
#119=VERTEX_POINT('',#263);
#120=VERTEX_POINT('',#267);
#121=VERTEX_POINT('',#271);
#122=VERTEX_POINT('',#273);
#123=VERTEX_POINT('',#276);
#124=VERTEX_POINT('',#279);
#125=VERTEX_POINT('',#283);
#126=EDGE_CURVE('',#118,#118,#134,.T.);
#127=EDGE_CURVE('',#119,#119,#135,.T.);
#128=EDGE_CURVE('',#120,#120,#136,.T.);
#129=EDGE_CURVE('',#121,#121,#137,.T.);
#130=EDGE_CURVE('',#122,#122,#138,.T.);
#131=EDGE_CURVE('',#123,#123,#139,.T.);
#132=EDGE_CURVE('',#124,#124,#140,.T.);
#133=EDGE_CURVE('',#125,#125,#141,.T.);
#134=CIRCLE('',#177,4.3);
#135=CIRCLE('',#178,5.);
#136=CIRCLE('',#181,5.);
#137=CIRCLE('',#184,0.5);
#138=CIRCLE('',#185,4.875);
#139=CIRCLE('',#187,5.);
#140=CIRCLE('',#189,4.99564758516679);
#141=CIRCLE('',#192,0.5);
#142=CURVE_STYLE('',#147,POSITIVE_LENGTH_MEASURE(0.18),#146);
#143=CURVE_STYLE('',#148,POSITIVE_LENGTH_MEASURE(0.18),#170);
#144=CURVE_STYLE('',#149,POSITIVE_LENGTH_MEASURE(0.18),#170);
#145=CURVE_STYLE('',#150,POSITIVE_LENGTH_MEASURE(0.18),#170);
#146=DRAUGHTING_PRE_DEFINED_COLOUR('blue');
#147=DRAUGHTING_PRE_DEFINED_CURVE_FONT('continuous');
#148=DRAUGHTING_PRE_DEFINED_CURVE_FONT('continuous');
#149=DRAUGHTING_PRE_DEFINED_CURVE_FONT('continuous');
#150=DRAUGHTING_PRE_DEFINED_CURVE_FONT('continuous');
#151=B_SPLINE_CURVE_WITH_KNOTS('CUTTING PART LINE',3,(#241,#242,#243,#244,
#245,#246,#247,#248,#249,#250,#251,#252,#253,#254,#255,#256),
 .UNSPECIFIED.,.T.,.F.,(4,3,3,3,3,4),(0.,0.454866240814721,0.499215699294157,
0.500823894310342,0.954552971250608,1.),.UNSPECIFIED.);
#152=PRESENTATION_LAYER_ASSIGNMENT('1','Layer 1',(#240,#151,#174,#175,#176,
#46,#47));
#153=STYLED_ITEM('',(#160),#240);
#154=STYLED_ITEM('',(#161),#151);
#155=STYLED_ITEM('',(#162),#174);
#156=STYLED_ITEM('',(#163),#175);
#157=STYLED_ITEM('',(#164),#176);
#158=STYLED_ITEM('',(#165),#46);
#159=STYLED_ITEM('',(#166),#47);
#160=PRESENTATION_STYLE_ASSIGNMENT((#167));
#161=PRESENTATION_STYLE_ASSIGNMENT((#142));
#162=PRESENTATION_STYLE_ASSIGNMENT((#143));
#163=PRESENTATION_STYLE_ASSIGNMENT((#144));
#164=PRESENTATION_STYLE_ASSIGNMENT((#145));
#165=PRESENTATION_STYLE_ASSIGNMENT((#36));
#166=PRESENTATION_STYLE_ASSIGNMENT((#37));
#167=POINT_STYLE('',#168,POSITIVE_LENGTH_MEASURE(3.),#169);
#168=PRE_DEFINED_POINT_MARKER_SYMBOL('plus');
#169=COLOUR_RGB('Medium Royal',0.2,0.4,0.8);
#170=COLOUR_RGB('Pale Maroon',0.811749446860456,0.603921568627451,0.611749446860456);
#171=COLOUR_RGB('Medium Gray',0.490196078431373,0.490196078431373,0.490196078431373);
#172=COLOUR_RGB('Light Gray',0.8,0.8,0.8);
#173=AXIS2_PLACEMENT_3D('',#239,#195,#196);
#174=AXIS2_PLACEMENT_3D('MCS',#257,#197,#198);
#175=AXIS2_PLACEMENT_3D('CIP',#258,#199,#200);
#176=AXIS2_PLACEMENT_3D('PCS',#259,#201,#202);
#177=AXIS2_PLACEMENT_3D('',#260,#203,#204);
#178=AXIS2_PLACEMENT_3D('',#262,#205,#206);
#179=AXIS2_PLACEMENT_3D('',#264,#207,#208);
#180=AXIS2_PLACEMENT_3D('',#265,#209,#210);
#181=AXIS2_PLACEMENT_3D('',#266,#211,#212);
#182=AXIS2_PLACEMENT_3D('',#268,#213,#214);
#183=AXIS2_PLACEMENT_3D('',#269,#215,#216);
#184=AXIS2_PLACEMENT_3D('',#270,#217,#218);
#185=AXIS2_PLACEMENT_3D('',#272,#219,#220);
#186=AXIS2_PLACEMENT_3D('',#274,#221,#222);
#187=AXIS2_PLACEMENT_3D('',#275,#223,#224);
#188=AXIS2_PLACEMENT_3D('',#277,#225,#226);
#189=AXIS2_PLACEMENT_3D('',#278,#227,#228);
#190=AXIS2_PLACEMENT_3D('',#280,#229,#230);
#191=AXIS2_PLACEMENT_3D('',#281,#231,#232);
#192=AXIS2_PLACEMENT_3D('',#282,#233,#234);
#193=AXIS2_PLACEMENT_3D('',#284,#235,#236);
#194=AXIS2_PLACEMENT_3D('',#285,#237,#238);
#195=DIRECTION('',(0.,0.,1.));
#196=DIRECTION('',(1.,0.,0.));
#197=DIRECTION('',(0.,0.,1.));
#198=DIRECTION('',(1.,0.,0.));
#199=DIRECTION('',(0.,0.,1.));
#200=DIRECTION('',(1.,0.,0.));
#201=DIRECTION('',(0.,0.,1.));
#202=DIRECTION('',(1.,0.,0.));
#203=DIRECTION('',(0.,0.,-1.));
#204=DIRECTION('',(-1.,0.,0.));
#205=DIRECTION('',(0.,0.,-1.));
#206=DIRECTION('',(-1.,0.,0.));
#207=DIRECTION('',(0.,0.,-1.));
#208=DIRECTION('',(-1.,0.,8.28524645242659E-17));
#209=DIRECTION('',(0.,0.,1.));
#210=DIRECTION('',(1.,0.,0.));
#211=DIRECTION('',(0.,0.,-1.));
#212=DIRECTION('',(-1.,0.,0.));
#213=DIRECTION('',(0.,0.,-1.));
#214=DIRECTION('',(-1.,0.,0.));
#215=DIRECTION('',(0.,0.,-1.));
#216=DIRECTION('',(-1.,0.,0.));
#217=DIRECTION('',(0.,0.,-1.));
#218=DIRECTION('',(1.,1.22464679914735E-16,0.));
#219=DIRECTION('',(0.,0.,-1.));
#220=DIRECTION('',(-1.,0.,0.));
#221=DIRECTION('',(0.,0.,-1.));
#222=DIRECTION('',(-1.,0.,0.));
#223=DIRECTION('',(0.,0.,-1.));
#224=DIRECTION('',(-1.,0.,0.));
#225=DIRECTION('',(0.,0.,1.));
#226=DIRECTION('',(1.,0.,2.76209236130151E-17));
#227=DIRECTION('',(0.,0.,-1.));
#228=DIRECTION('',(-1.,0.,0.));
#229=DIRECTION('',(0.,0.,-1.));
#230=DIRECTION('',(-1.,0.,1.36397296163233E-14));
#231=DIRECTION('',(0.,0.,-1.));
#232=DIRECTION('',(-1.,0.,0.));
#233=DIRECTION('',(0.,0.,1.));
#234=DIRECTION('',(1.,1.22464679914735E-16,0.));
#235=DIRECTION('',(0.,0.,-1.));
#236=DIRECTION('',(-1.,0.,0.));
#237=DIRECTION('',(0.,0.,-1.));
#238=DIRECTION('',(-1.,0.,0.));
#239=CARTESIAN_POINT('',(0.,0.,0.));
#240=CARTESIAN_POINT('CRP',(-5.,0.,-100.));
#241=CARTESIAN_POINT('',(0.,0.,-50.));
#242=CARTESIAN_POINT('',(0.,0.,-66.6666666666667));
#243=CARTESIAN_POINT('',(0.,0.,-83.3333333333333));
#244=CARTESIAN_POINT('',(0.,0.,-100.));
#245=CARTESIAN_POINT('',(-1.625,0.,-100.));
#246=CARTESIAN_POINT('',(-3.25,0.,-100.));
#247=CARTESIAN_POINT('',(-4.875,0.,-100.));
#248=CARTESIAN_POINT('',(-4.91666666666667,0.,-99.9583333333333));
#249=CARTESIAN_POINT('',(-4.95833333333333,0.,-99.9166666666667));
#250=CARTESIAN_POINT('',(-5.,0.,-99.875));
#251=CARTESIAN_POINT('',(-4.9985491950556,0.,-83.25));
#252=CARTESIAN_POINT('',(-4.9970983901112,0.,-66.625));
#253=CARTESIAN_POINT('',(-4.99564758516679,0.,-50.));
#254=CARTESIAN_POINT('',(-3.33043172344453,0.,-50.));
#255=CARTESIAN_POINT('',(-1.66521586172226,0.,-50.));
#256=CARTESIAN_POINT('',(0.,0.,-50.));
#257=CARTESIAN_POINT('',(0.,0.,-40.));
#258=CARTESIAN_POINT('',(0.,0.,-100.));
#259=CARTESIAN_POINT('',(0.,0.,0.));
#260=CARTESIAN_POINT('',(0.,0.,0.));
#261=CARTESIAN_POINT('',(-4.3,0.,0.));
#262=CARTESIAN_POINT('',(0.,0.,-0.700000000000006));
#263=CARTESIAN_POINT('',(-5.,0.,-0.700000000000006));
#264=CARTESIAN_POINT('',(0.,0.,-0.700000000000006));
#265=CARTESIAN_POINT('',(4.3,0.,7.35006251551154E-17));
#266=CARTESIAN_POINT('',(0.,0.,-50.));
#267=CARTESIAN_POINT('',(-5.,0.,-50.));
#268=CARTESIAN_POINT('',(4.99564758516679,0.,-50.));
#269=CARTESIAN_POINT('',(0.,0.,-40.));
#270=CARTESIAN_POINT('',(0.,0.,-100.));
#271=CARTESIAN_POINT('',(0.5,6.12323399573677E-17,-100.));
#272=CARTESIAN_POINT('',(0.,0.,-100.));
#273=CARTESIAN_POINT('',(-4.875,0.,-100.));
#274=CARTESIAN_POINT('',(2.22044604925031E-15,0.,-100.));
#275=CARTESIAN_POINT('',(0.,0.,-99.875));
#276=CARTESIAN_POINT('',(-5.,0.,-99.875));
#277=CARTESIAN_POINT('',(0.,0.,-100.));
#278=CARTESIAN_POINT('',(0.,0.,-50.));
#279=CARTESIAN_POINT('',(-4.99564758516679,0.,-50.));
#280=CARTESIAN_POINT('',(0.,0.,-99.875));
#281=CARTESIAN_POINT('',(0.,0.,-50.));
#282=CARTESIAN_POINT('',(0.,0.,-99.9));
#283=CARTESIAN_POINT('',(0.5,6.12323399573677E-17,-99.9));
#284=CARTESIAN_POINT('',(0.,0.,-99.9));
#285=CARTESIAN_POINT('',(0.,0.,-99.9));
#286=MECHANICAL_DESIGN_GEOMETRIC_PRESENTATION_REPRESENTATION('',(#153,#154,
#155,#156,#157,#158,#159),#287);
#287=(
GEOMETRIC_REPRESENTATION_CONTEXT(3)
GLOBAL_UNCERTAINTY_ASSIGNED_CONTEXT((#288))
GLOBAL_UNIT_ASSIGNED_CONTEXT((#294,#290,#289))
REPRESENTATION_CONTEXT('JS565100D4C','TOP_LEVEL_ASSEMBLY_PART')
);
#288=UNCERTAINTY_MEASURE_WITH_UNIT(LENGTH_MEASURE(2.E-5),#294,
'DISTANCE_ACCURACY_VALUE','Maximum Tolerance applied to model');
#289=(
NAMED_UNIT(*)
SI_UNIT($,.STERADIAN.)
SOLID_ANGLE_UNIT()
);
#290=(
CONVERSION_BASED_UNIT('DEGREE',#292)
NAMED_UNIT(#291)
PLANE_ANGLE_UNIT()
);
#291=DIMENSIONAL_EXPONENTS(0.,0.,0.,0.,0.,0.,0.);
#292=PLANE_ANGLE_MEASURE_WITH_UNIT(PLANE_ANGLE_MEASURE(0.0174532925),#293);
#293=(
NAMED_UNIT(*)
PLANE_ANGLE_UNIT()
SI_UNIT($,.RADIAN.)
);
#294=(
LENGTH_UNIT()
NAMED_UNIT(*)
SI_UNIT(.MILLI.,.METRE.)
);
ENDSEC;
END-ISO-10303-21;
