ISO-10303-21;
HEADER;
/* Generated by software containing ST-Developer
 * from STEP Tools, Inc. (www.steptools.com) 
 */
/* OPTION: using custom schema-name function */

FILE_DESCRIPTION(
/* description */ (''),
/* implementation_level */ '2;1');

FILE_NAME(
/* name */ 'N5BS-3.175H7-EB45_Basic.stp',
/* time_stamp */ '2024-09-06T11:03:57+06:00',
/* author */ (''),
/* organization */ (''),
/* preprocessor_version */ 'ST-DEVELOPER v16.7',
/* originating_system */ 'SIEMENS PLM Software NX 12.0',
/* authorisation */ '');

FILE_SCHEMA (('AUTOMOTIVE_DESIGN { 1 0 10303 214 3 1 1 1 }'));
ENDSEC;

DATA;
#10=CONSTRUCTIVE_GEOMETRY_REPRESENTATION_RELATIONSHIP(
'supplemental geometry','',#34,#11);
#11=CONSTRUCTIVE_GEOMETRY_REPRESENTATION('supplemental geometry',(#197,
#198,#199),#322);
#12=GEOMETRICALLY_BOUNDED_WIREFRAME_SHAPE_REPRESENTATION(
'inco2F7C1495djd2-None',(#35),#322);
#13=PROPERTY_DEFINITION_REPRESENTATION(#17,#15);
#14=PROPERTY_DEFINITION_REPRESENTATION(#18,#16);
#15=REPRESENTATION('',(#19),#322);
#16=REPRESENTATION('',(#20),#322);
#17=PROPERTY_DEFINITION('pmi validation property','',#25);
#18=PROPERTY_DEFINITION('pmi validation property','',#25);
#19=VALUE_REPRESENTATION_ITEM('number of annotations',COUNT_MEASURE(0.));
#20=VALUE_REPRESENTATION_ITEM('number of views',COUNT_MEASURE(0.));
#21=SHAPE_REPRESENTATION_RELATIONSHIP('None',
'relationship between inco2F7C1495djd2-None and inco2F7C1495djd2-None',
#34,#23);
#22=SHAPE_REPRESENTATION_RELATIONSHIP('None',
'relationship between inco2F7C1495djd2-None and inco2F7C1495djd2-None',
#34,#12);
#23=ADVANCED_BREP_SHAPE_REPRESENTATION('inco2F7C1495djd2-None',(#46,#47),
#322);
#24=SHAPE_DEFINITION_REPRESENTATION(#25,#34);
#25=PRODUCT_DEFINITION_SHAPE('','',#26);
#26=PRODUCT_DEFINITION(' ','',#28,#27);
#27=PRODUCT_DEFINITION_CONTEXT('part definition',#33,'design');
#28=PRODUCT_DEFINITION_FORMATION_WITH_SPECIFIED_SOURCE(' ',' ',#30,
 .NOT_KNOWN.);
#29=PRODUCT_RELATED_PRODUCT_CATEGORY('part','',(#30));
#30=PRODUCT('inco2F7C1495djd2','inco2F7C1495djd2',' ',(#31));
#31=PRODUCT_CONTEXT(' ',#33,'mechanical');
#32=APPLICATION_PROTOCOL_DEFINITION('international standard',
'automotive_design',2010,#33);
#33=APPLICATION_CONTEXT(
'core data for automotive mechanical design processes');
#34=SHAPE_REPRESENTATION('inco2F7C1495djd2-None',(#196),#322);
#35=GEOMETRIC_CURVE_SET('None',(#269,#270,#271,#272,#162));
#36=SURFACE_STYLE_USAGE(.BOTH.,#38);
#37=SURFACE_STYLE_USAGE(.BOTH.,#39);
#38=SURFACE_SIDE_STYLE('',(#40));
#39=SURFACE_SIDE_STYLE('',(#41));
#40=SURFACE_STYLE_FILL_AREA(#42);
#41=SURFACE_STYLE_FILL_AREA(#43);
#42=FILL_AREA_STYLE('',(#44));
#43=FILL_AREA_STYLE('',(#45));
#44=FILL_AREA_STYLE_COLOUR('',#194);
#45=FILL_AREA_STYLE_COLOUR('',#195);
#46=MANIFOLD_SOLID_BREP('NOCUT',#48);
#47=MANIFOLD_SOLID_BREP('CUT',#49);
#48=CLOSED_SHELL('',(#61,#62,#63,#64,#65,#66,#67));
#49=CLOSED_SHELL('',(#68,#69,#70,#71));
#50=PLANE('',#210);
#51=PLANE('',#212);
#52=PLANE('',#214);
#53=PLANE('',#219);
#54=FACE_OUTER_BOUND('',#98,.T.);
#55=FACE_OUTER_BOUND('',#101,.T.);
#56=FACE_OUTER_BOUND('',#102,.T.);
#57=FACE_OUTER_BOUND('',#107,.T.);
#58=CYLINDRICAL_SURFACE('',#204,1.5485);
#59=CYLINDRICAL_SURFACE('',#207,2.);
#60=CYLINDRICAL_SURFACE('',#218,1.5875);
#61=ADVANCED_FACE('',(#76,#77),#72,.T.);
#62=ADVANCED_FACE('',(#78,#79),#58,.T.);
#63=ADVANCED_FACE('',(#80,#81),#59,.T.);
#64=ADVANCED_FACE('',(#82,#83),#73,.T.);
#65=ADVANCED_FACE('',(#54),#50,.T.);
#66=ADVANCED_FACE('',(#84,#85),#74,.T.);
#67=ADVANCED_FACE('',(#55),#51,.T.);
#68=ADVANCED_FACE('',(#56),#52,.T.);
#69=ADVANCED_FACE('',(#86,#87),#75,.T.);
#70=ADVANCED_FACE('',(#88,#89),#60,.T.);
#71=ADVANCED_FACE('',(#57),#53,.T.);
#72=CONICAL_SURFACE('',#202,1.5485,10.0000000000001);
#73=CONICAL_SURFACE('',#209,2.,45.0000000000001);
#74=CONICAL_SURFACE('',#211,2.,7.35056136968119);
#75=CONICAL_SURFACE('',#216,1.08999998246786,44.999990010098);
#76=FACE_BOUND('',#90,.T.);
#77=FACE_BOUND('',#91,.T.);
#78=FACE_BOUND('',#92,.T.);
#79=FACE_BOUND('',#93,.T.);
#80=FACE_BOUND('',#94,.T.);
#81=FACE_BOUND('',#95,.T.);
#82=FACE_BOUND('',#96,.T.);
#83=FACE_BOUND('',#97,.T.);
#84=FACE_BOUND('',#99,.T.);
#85=FACE_BOUND('',#100,.T.);
#86=FACE_BOUND('',#103,.T.);
#87=FACE_BOUND('',#104,.T.);
#88=FACE_BOUND('',#105,.T.);
#89=FACE_BOUND('',#106,.T.);
#90=EDGE_LOOP('',(#108));
#91=EDGE_LOOP('',(#109));
#92=EDGE_LOOP('',(#110));
#93=EDGE_LOOP('',(#111));
#94=EDGE_LOOP('',(#112));
#95=EDGE_LOOP('',(#113));
#96=EDGE_LOOP('',(#114));
#97=EDGE_LOOP('',(#115));
#98=EDGE_LOOP('',(#116));
#99=EDGE_LOOP('',(#117));
#100=EDGE_LOOP('',(#118));
#101=EDGE_LOOP('',(#119));
#102=EDGE_LOOP('',(#120));
#103=EDGE_LOOP('',(#121));
#104=EDGE_LOOP('',(#122));
#105=EDGE_LOOP('',(#123));
#106=EDGE_LOOP('',(#124));
#107=EDGE_LOOP('',(#125));
#108=ORIENTED_EDGE('',*,*,#135,.T.);
#109=ORIENTED_EDGE('',*,*,#136,.F.);
#110=ORIENTED_EDGE('',*,*,#135,.F.);
#111=ORIENTED_EDGE('',*,*,#137,.T.);
#112=ORIENTED_EDGE('',*,*,#138,.T.);
#113=ORIENTED_EDGE('',*,*,#139,.F.);
#114=ORIENTED_EDGE('',*,*,#140,.T.);
#115=ORIENTED_EDGE('',*,*,#138,.F.);
#116=ORIENTED_EDGE('',*,*,#140,.F.);
#117=ORIENTED_EDGE('',*,*,#137,.F.);
#118=ORIENTED_EDGE('',*,*,#139,.T.);
#119=ORIENTED_EDGE('',*,*,#136,.T.);
#120=ORIENTED_EDGE('',*,*,#141,.T.);
#121=ORIENTED_EDGE('',*,*,#141,.F.);
#122=ORIENTED_EDGE('',*,*,#142,.T.);
#123=ORIENTED_EDGE('',*,*,#142,.F.);
#124=ORIENTED_EDGE('',*,*,#143,.T.);
#125=ORIENTED_EDGE('',*,*,#143,.F.);
#126=VERTEX_POINT('',#293);
#127=VERTEX_POINT('',#295);
#128=VERTEX_POINT('',#298);
#129=VERTEX_POINT('',#301);
#130=VERTEX_POINT('',#303);
#131=VERTEX_POINT('',#306);
#132=VERTEX_POINT('',#312);
#133=VERTEX_POINT('',#315);
#134=VERTEX_POINT('',#318);
#135=EDGE_CURVE('',#126,#126,#144,.T.);
#136=EDGE_CURVE('',#127,#127,#145,.T.);
#137=EDGE_CURVE('',#128,#128,#146,.T.);
#138=EDGE_CURVE('',#129,#129,#147,.T.);
#139=EDGE_CURVE('',#130,#130,#148,.T.);
#140=EDGE_CURVE('',#131,#131,#149,.T.);
#141=EDGE_CURVE('',#132,#132,#150,.T.);
#142=EDGE_CURVE('',#133,#133,#151,.T.);
#143=EDGE_CURVE('',#134,#134,#152,.T.);
#144=CIRCLE('',#200,1.5485);
#145=CIRCLE('',#201,1.586);
#146=CIRCLE('',#203,1.5485);
#147=CIRCLE('',#205,2.);
#148=CIRCLE('',#206,2.);
#149=CIRCLE('',#208,1.7);
#150=CIRCLE('',#213,1.08999998246786);
#151=CIRCLE('',#215,1.5875);
#152=CIRCLE('',#217,1.5875);
#153=CURVE_STYLE('',#158,POSITIVE_LENGTH_MEASURE(0.18),#157);
#154=CURVE_STYLE('',#159,POSITIVE_LENGTH_MEASURE(0.18),#192);
#155=CURVE_STYLE('',#160,POSITIVE_LENGTH_MEASURE(0.18),#192);
#156=CURVE_STYLE('',#161,POSITIVE_LENGTH_MEASURE(0.18),#192);
#157=DRAUGHTING_PRE_DEFINED_COLOUR('blue');
#158=DRAUGHTING_PRE_DEFINED_CURVE_FONT('continuous');
#159=DRAUGHTING_PRE_DEFINED_CURVE_FONT('continuous');
#160=DRAUGHTING_PRE_DEFINED_CURVE_FONT('continuous');
#161=DRAUGHTING_PRE_DEFINED_CURVE_FONT('continuous');
#162=B_SPLINE_CURVE_WITH_KNOTS('CUTTING PART LINE',3,(#273,#274,#275,#276,
#277,#278,#279,#280,#281,#282,#283,#284,#285,#286,#287,#288),
 .UNSPECIFIED.,.T.,.F.,(4,3,3,3,3,4),(0.,0.0590509344509454,0.486914469745529,
0.513085523800715,0.553630731684991,1.),.UNSPECIFIED.);
#163=PRESENTATION_LAYER_ASSIGNMENT('1','Layer 1',(#269,#270,#271,#272,#162,
#197,#198,#199,#46,#47));
#164=STYLED_ITEM('',(#174),#269);
#165=STYLED_ITEM('',(#175),#270);
#166=STYLED_ITEM('',(#176),#271);
#167=STYLED_ITEM('',(#177),#272);
#168=STYLED_ITEM('',(#178),#162);
#169=STYLED_ITEM('',(#179),#197);
#170=STYLED_ITEM('',(#180),#198);
#171=STYLED_ITEM('',(#181),#199);
#172=STYLED_ITEM('',(#182),#46);
#173=STYLED_ITEM('',(#183),#47);
#174=PRESENTATION_STYLE_ASSIGNMENT((#184));
#175=PRESENTATION_STYLE_ASSIGNMENT((#185));
#176=PRESENTATION_STYLE_ASSIGNMENT((#186));
#177=PRESENTATION_STYLE_ASSIGNMENT((#187));
#178=PRESENTATION_STYLE_ASSIGNMENT((#153));
#179=PRESENTATION_STYLE_ASSIGNMENT((#154));
#180=PRESENTATION_STYLE_ASSIGNMENT((#155));
#181=PRESENTATION_STYLE_ASSIGNMENT((#156));
#182=PRESENTATION_STYLE_ASSIGNMENT((#36));
#183=PRESENTATION_STYLE_ASSIGNMENT((#37));
#184=POINT_STYLE('',#188,POSITIVE_LENGTH_MEASURE(3.),#192);
#185=POINT_STYLE('',#189,POSITIVE_LENGTH_MEASURE(3.),#192);
#186=POINT_STYLE('',#190,POSITIVE_LENGTH_MEASURE(3.),#192);
#187=POINT_STYLE('',#191,POSITIVE_LENGTH_MEASURE(3.),#193);
#188=PRE_DEFINED_POINT_MARKER_SYMBOL('plus');
#189=PRE_DEFINED_POINT_MARKER_SYMBOL('plus');
#190=PRE_DEFINED_POINT_MARKER_SYMBOL('plus');
#191=PRE_DEFINED_POINT_MARKER_SYMBOL('plus');
#192=COLOUR_RGB('Strong Stone',0.576470588235294,0.54508278019379,0.392156862745098);
#193=COLOUR_RGB('Medium Royal',0.2,0.4,0.8);
#194=COLOUR_RGB('Medium Gray',0.490196078431373,0.490196078431373,0.490196078431373);
#195=COLOUR_RGB('Light Gray',0.8,0.8,0.8);
#196=AXIS2_PLACEMENT_3D('',#268,#220,#221);
#197=AXIS2_PLACEMENT_3D('PCS',#289,#222,#223);
#198=AXIS2_PLACEMENT_3D('MCS',#290,#224,#225);
#199=AXIS2_PLACEMENT_3D('CIP',#291,#226,#227);
#200=AXIS2_PLACEMENT_3D('',#292,#228,#229);
#201=AXIS2_PLACEMENT_3D('',#294,#230,#231);
#202=AXIS2_PLACEMENT_3D('',#296,#232,#233);
#203=AXIS2_PLACEMENT_3D('',#297,#234,#235);
#204=AXIS2_PLACEMENT_3D('',#299,#236,#237);
#205=AXIS2_PLACEMENT_3D('',#300,#238,#239);
#206=AXIS2_PLACEMENT_3D('',#302,#240,#241);
#207=AXIS2_PLACEMENT_3D('',#304,#242,#243);
#208=AXIS2_PLACEMENT_3D('',#305,#244,#245);
#209=AXIS2_PLACEMENT_3D('',#307,#246,#247);
#210=AXIS2_PLACEMENT_3D('',#308,#248,#249);
#211=AXIS2_PLACEMENT_3D('',#309,#250,#251);
#212=AXIS2_PLACEMENT_3D('',#310,#252,#253);
#213=AXIS2_PLACEMENT_3D('',#311,#254,#255);
#214=AXIS2_PLACEMENT_3D('',#313,#256,#257);
#215=AXIS2_PLACEMENT_3D('',#314,#258,#259);
#216=AXIS2_PLACEMENT_3D('',#316,#260,#261);
#217=AXIS2_PLACEMENT_3D('',#317,#262,#263);
#218=AXIS2_PLACEMENT_3D('',#319,#264,#265);
#219=AXIS2_PLACEMENT_3D('',#320,#266,#267);
#220=DIRECTION('',(0.,0.,1.));
#221=DIRECTION('',(1.,0.,0.));
#222=DIRECTION('',(0.,0.,1.));
#223=DIRECTION('',(1.,0.,0.));
#224=DIRECTION('',(0.,0.,1.));
#225=DIRECTION('',(1.,0.,0.));
#226=DIRECTION('',(0.,0.,1.));
#227=DIRECTION('',(1.,0.,0.));
#228=DIRECTION('',(0.,0.,-1.));
#229=DIRECTION('',(1.,0.,0.));
#230=DIRECTION('',(0.,0.,-1.));
#231=DIRECTION('',(1.,0.,0.));
#232=DIRECTION('',(0.,0.,-1.));
#233=DIRECTION('',(-1.,0.,0.));
#234=DIRECTION('',(0.,0.,-1.));
#235=DIRECTION('',(1.,0.,0.));
#236=DIRECTION('',(0.,0.,-1.));
#237=DIRECTION('',(-1.,0.,0.));
#238=DIRECTION('',(0.,0.,-1.));
#239=DIRECTION('',(1.,0.,0.));
#240=DIRECTION('',(0.,0.,-1.));
#241=DIRECTION('',(1.,0.,0.));
#242=DIRECTION('',(0.,0.,-1.));
#243=DIRECTION('',(-1.,0.,0.));
#244=DIRECTION('',(0.,0.,-1.));
#245=DIRECTION('',(1.,0.,0.));
#246=DIRECTION('',(0.,0.,-1.));
#247=DIRECTION('',(-1.,0.,3.46252190813732E-17));
#248=DIRECTION('',(0.,0.,1.));
#249=DIRECTION('',(1.,0.,0.));
#250=DIRECTION('',(0.,0.,1.));
#251=DIRECTION('',(1.,0.,-2.64843278775087E-16));
#252=DIRECTION('',(0.,0.,-1.));
#253=DIRECTION('',(-1.,0.,0.));
#254=DIRECTION('',(0.,0.,-1.));
#255=DIRECTION('',(-1.,0.,0.));
#256=DIRECTION('',(0.,0.,-1.));
#257=DIRECTION('',(-1.,0.,0.));
#258=DIRECTION('',(0.,0.,-1.));
#259=DIRECTION('',(1.,0.,0.));
#260=DIRECTION('',(0.,0.,1.));
#261=DIRECTION('',(1.,0.,-4.15880469552964E-17));
#262=DIRECTION('',(0.,0.,-1.));
#263=DIRECTION('',(1.,0.,0.));
#264=DIRECTION('',(0.,0.,-1.));
#265=DIRECTION('',(-1.,0.,0.));
#266=DIRECTION('',(0.,0.,1.));
#267=DIRECTION('',(1.,0.,0.));
#268=CARTESIAN_POINT('',(0.,0.,0.));
#269=CARTESIAN_POINT('',(0.,0.,0.));
#270=CARTESIAN_POINT('',(0.,0.,-25.));
#271=CARTESIAN_POINT('',(0.,0.,-50.));
#272=CARTESIAN_POINT('CRP',(-1.5875,0.,-50.));
#273=CARTESIAN_POINT('',(0.,0.,-38.));
#274=CARTESIAN_POINT('',(-0.529166666666667,0.,-38.));
#275=CARTESIAN_POINT('',(-1.05833333333333,0.,-38.));
#276=CARTESIAN_POINT('',(-1.5875,0.,-38.));
#277=CARTESIAN_POINT('',(-1.5875,0.,-41.8341666029943));
#278=CARTESIAN_POINT('',(-1.5875,0.,-45.6683332059886));
#279=CARTESIAN_POINT('',(-1.5875,0.,-49.5024998089829));
#280=CARTESIAN_POINT('',(-1.42166666082262,0.,-49.6683332059886));
#281=CARTESIAN_POINT('',(-1.25583332164524,0.,-49.8341666029943));
#282=CARTESIAN_POINT('',(-1.08999998246786,0.,-50.));
#283=CARTESIAN_POINT('',(-0.726666654978575,0.,-50.));
#284=CARTESIAN_POINT('',(-0.363333327489287,0.,-50.));
#285=CARTESIAN_POINT('',(0.,0.,-50.));
#286=CARTESIAN_POINT('',(0.,0.,-46.));
#287=CARTESIAN_POINT('',(0.,0.,-42.));
#288=CARTESIAN_POINT('',(0.,0.,-38.));
#289=CARTESIAN_POINT('',(0.,0.,0.));
#290=CARTESIAN_POINT('',(0.,0.,-25.));
#291=CARTESIAN_POINT('',(0.,0.,-50.));
#292=CARTESIAN_POINT('',(0.,0.,-37.7873269317643));
#293=CARTESIAN_POINT('',(1.5485,0.,-37.7873269317643));
#294=CARTESIAN_POINT('',(0.,0.,-38.));
#295=CARTESIAN_POINT('',(1.586,0.,-38.));
#296=CARTESIAN_POINT('',(0.,0.,-37.7873269317643));
#297=CARTESIAN_POINT('',(0.,0.,-28.5));
#298=CARTESIAN_POINT('',(1.5485,0.,-28.5));
#299=CARTESIAN_POINT('',(0.,0.,-50.));
#300=CARTESIAN_POINT('',(0.,0.,-0.300000000000002));
#301=CARTESIAN_POINT('',(2.,0.,-0.300000000000002));
#302=CARTESIAN_POINT('',(0.,0.,-25.));
#303=CARTESIAN_POINT('',(2.,0.,-25.));
#304=CARTESIAN_POINT('',(0.,0.,-50.));
#305=CARTESIAN_POINT('',(0.,0.,0.));
#306=CARTESIAN_POINT('',(1.7,0.,0.));
#307=CARTESIAN_POINT('',(0.,0.,-0.300000000000002));
#308=CARTESIAN_POINT('',(0.,0.,0.));
#309=CARTESIAN_POINT('',(0.,0.,-25.));
#310=CARTESIAN_POINT('',(0.,1.99840144432528E-15,-38.));
#311=CARTESIAN_POINT('',(0.,0.,-50.));
#312=CARTESIAN_POINT('',(-1.08999998246786,0.,-50.));
#313=CARTESIAN_POINT('',(0.,0.,-50.));
#314=CARTESIAN_POINT('',(0.,0.,-49.5024998089829));
#315=CARTESIAN_POINT('',(1.5875,0.,-49.5024998089829));
#316=CARTESIAN_POINT('',(0.,0.,-50.));
#317=CARTESIAN_POINT('',(0.,0.,-38.));
#318=CARTESIAN_POINT('',(1.5875,0.,-38.));
#319=CARTESIAN_POINT('',(0.,0.,-50.));
#320=CARTESIAN_POINT('',(0.,1.58887528111841,-38.));
#321=MECHANICAL_DESIGN_GEOMETRIC_PRESENTATION_REPRESENTATION('',(#164,#165,
#166,#167,#168,#169,#170,#171,#172,#173),#322);
#322=(
GEOMETRIC_REPRESENTATION_CONTEXT(3)
GLOBAL_UNCERTAINTY_ASSIGNED_CONTEXT((#323))
GLOBAL_UNIT_ASSIGNED_CONTEXT((#329,#325,#324))
REPRESENTATION_CONTEXT('N5BS-3','TOP_LEVEL_ASSEMBLY_PART')
);
#323=UNCERTAINTY_MEASURE_WITH_UNIT(LENGTH_MEASURE(2.E-5),#329,
'DISTANCE_ACCURACY_VALUE','Maximum Tolerance applied to model');
#324=(
NAMED_UNIT(*)
SI_UNIT($,.STERADIAN.)
SOLID_ANGLE_UNIT()
);
#325=(
CONVERSION_BASED_UNIT('DEGREE',#327)
NAMED_UNIT(#326)
PLANE_ANGLE_UNIT()
);
#326=DIMENSIONAL_EXPONENTS(0.,0.,0.,0.,0.,0.,0.);
#327=PLANE_ANGLE_MEASURE_WITH_UNIT(PLANE_ANGLE_MEASURE(0.0174532925),#328);
#328=(
NAMED_UNIT(*)
PLANE_ANGLE_UNIT()
SI_UNIT($,.RADIAN.)
);
#329=(
LENGTH_UNIT()
NAMED_UNIT(*)
SI_UNIT(.MILLI.,.METRE.)
);
ENDSEC;
END-ISO-10303-21;
