ISO-10303-21;
HEADER;
/* Generated by software containing ST-Developer
 * from STEP Tools, Inc. (www.steptools.com) 
 */
/* OPTION: using custom schema-name function */

FILE_DESCRIPTION(
/* description */ (''),
/* implementation_level */ '2;1');

FILE_NAME(
/* name */ 'N5TS-7H7-EB45_Basic.stp',
/* time_stamp */ '2024-12-17T08:41:53+01:00',
/* author */ (''),
/* organization */ (''),
/* preprocessor_version */ 'ST-DEVELOPER v18.102',
/* originating_system */ 'SIEMENS PLM Software NX2206.8101',
/* authorisation */ '');

FILE_SCHEMA (('AUTOMOTIVE_DESIGN { 1 0 10303 214 3 1 1 1 }'));
ENDSEC;

DATA;
#10=CONSTRUCTIVE_GEOMETRY_REPRESENTATION_RELATIONSHIP(
'supplemental geometry','',#34,#11);
#11=CONSTRUCTIVE_GEOMETRY_REPRESENTATION('supplemental geometry',(#185,
#186,#187),#307);
#12=GEOMETRICALLY_BOUNDED_WIREFRAME_SHAPE_REPRESENTATION(
'NANOJET_MD-(PRD000003-113771-367)_objects-None',(#35),#307);
#13=PROPERTY_DEFINITION_REPRESENTATION(#17,#15);
#14=PROPERTY_DEFINITION_REPRESENTATION(#18,#16);
#15=REPRESENTATION('',(#19),#307);
#16=REPRESENTATION('',(#20),#307);
#17=PROPERTY_DEFINITION('pmi validation property','',#25);
#18=PROPERTY_DEFINITION('pmi validation property','',#25);
#19=VALUE_REPRESENTATION_ITEM('number of annotations',COUNT_MEASURE(0.));
#20=VALUE_REPRESENTATION_ITEM('number of views',COUNT_MEASURE(0.));
#21=SHAPE_REPRESENTATION_RELATIONSHIP('None',
'relationship between NANOJET_MD-(PRD000003-113771-367)_objects-None a
nd NANOJET_MD-(PRD000003-113771-367)_objects-None',#34,#23);
#22=SHAPE_REPRESENTATION_RELATIONSHIP('None',
'relationship between NANOJET_MD-(PRD000003-113771-367)_objects-None a
nd NANOJET_MD-(PRD000003-113771-367)_objects-None',#34,#12);
#23=ADVANCED_BREP_SHAPE_REPRESENTATION(
'NANOJET_MD-(PRD000003-113771-367)_objects-None',(#46,#47),#307);
#24=SHAPE_DEFINITION_REPRESENTATION(#25,#34);
#25=PRODUCT_DEFINITION_SHAPE('','',#26);
#26=PRODUCT_DEFINITION(' ','',#28,#27);
#27=PRODUCT_DEFINITION_CONTEXT('part definition',#33,'design');
#28=PRODUCT_DEFINITION_FORMATION_WITH_SPECIFIED_SOURCE(' ',' ',#30,
 .NOT_KNOWN.);
#29=PRODUCT_RELATED_PRODUCT_CATEGORY('part','',(#30));
#30=PRODUCT('NANOJET_MD-(PRD000003-113771-367)_objects',
'NANOJET_MD-(PRD000003-113771-367)_objects',' ',(#31));
#31=PRODUCT_CONTEXT(' ',#33,'mechanical');
#32=APPLICATION_PROTOCOL_DEFINITION('international standard',
'automotive_design',2010,#33);
#33=APPLICATION_CONTEXT(
'core data for automotive mechanical design processes');
#34=SHAPE_REPRESENTATION(
'NANOJET_MD-(PRD000003-113771-367)_objects-None',(#184),#307);
#35=GEOMETRIC_CURVE_SET('None',(#257,#162));
#36=SURFACE_STYLE_USAGE(.BOTH.,#38);
#37=SURFACE_STYLE_USAGE(.BOTH.,#39);
#38=SURFACE_SIDE_STYLE('',(#40));
#39=SURFACE_SIDE_STYLE('',(#41));
#40=SURFACE_STYLE_FILL_AREA(#42);
#41=SURFACE_STYLE_FILL_AREA(#43);
#42=FILL_AREA_STYLE('',(#44));
#43=FILL_AREA_STYLE('',(#45));
#44=FILL_AREA_STYLE_COLOUR('',#182);
#45=FILL_AREA_STYLE_COLOUR('',#183);
#46=MANIFOLD_SOLID_BREP('NOCUT',#48);
#47=MANIFOLD_SOLID_BREP('CUT',#49);
#48=CLOSED_SHELL('',(#71,#72,#73,#74,#75,#76,#77));
#49=CLOSED_SHELL('',(#78,#79,#80,#81));
#50=CYLINDRICAL_SURFACE('',#193,4.);
#51=CYLINDRICAL_SURFACE('',#197,3.362);
#52=CONICAL_SURFACE('',#191,4.,44.9999999999975);
#53=CONICAL_SURFACE('',#195,3.36199999999999,17.6926828730711);
#54=CONICAL_SURFACE('',#199,3.48700000000001,9.99999999999874);
#55=CONICAL_SURFACE('',#206,3.5025,44.9999999999802);
#56=CONICAL_SURFACE('',#207,3.503,0.0572957604144989);
#57=FACE_BOUND('',#91,.T.);
#58=FACE_BOUND('',#92,.T.);
#59=FACE_BOUND('',#93,.T.);
#60=FACE_BOUND('',#94,.T.);
#61=FACE_BOUND('',#95,.T.);
#62=FACE_BOUND('',#96,.T.);
#63=FACE_BOUND('',#97,.T.);
#64=FACE_BOUND('',#98,.T.);
#65=FACE_BOUND('',#99,.T.);
#66=FACE_BOUND('',#100,.T.);
#67=FACE_BOUND('',#104,.T.);
#68=FACE_BOUND('',#105,.T.);
#69=FACE_BOUND('',#106,.T.);
#70=FACE_BOUND('',#107,.T.);
#71=ADVANCED_FACE('',(#86),#82,.F.);
#72=ADVANCED_FACE('',(#57,#58),#52,.T.);
#73=ADVANCED_FACE('',(#59,#60),#50,.T.);
#74=ADVANCED_FACE('',(#61,#62),#53,.T.);
#75=ADVANCED_FACE('',(#63,#64),#51,.T.);
#76=ADVANCED_FACE('',(#65,#66),#54,.T.);
#77=ADVANCED_FACE('',(#87),#83,.F.);
#78=ADVANCED_FACE('',(#88),#84,.T.);
#79=ADVANCED_FACE('',(#89),#85,.F.);
#80=ADVANCED_FACE('',(#67,#68),#55,.T.);
#81=ADVANCED_FACE('',(#69,#70),#56,.T.);
#82=PLANE('',#189);
#83=PLANE('',#200);
#84=PLANE('',#202);
#85=PLANE('',#204);
#86=FACE_OUTER_BOUND('',#90,.T.);
#87=FACE_OUTER_BOUND('',#101,.T.);
#88=FACE_OUTER_BOUND('',#102,.T.);
#89=FACE_OUTER_BOUND('',#103,.T.);
#90=EDGE_LOOP('',(#108));
#91=EDGE_LOOP('',(#109));
#92=EDGE_LOOP('',(#110));
#93=EDGE_LOOP('',(#111));
#94=EDGE_LOOP('',(#112));
#95=EDGE_LOOP('',(#113));
#96=EDGE_LOOP('',(#114));
#97=EDGE_LOOP('',(#115));
#98=EDGE_LOOP('',(#116));
#99=EDGE_LOOP('',(#117));
#100=EDGE_LOOP('',(#118));
#101=EDGE_LOOP('',(#119));
#102=EDGE_LOOP('',(#120));
#103=EDGE_LOOP('',(#121));
#104=EDGE_LOOP('',(#122));
#105=EDGE_LOOP('',(#123));
#106=EDGE_LOOP('',(#124));
#107=EDGE_LOOP('',(#125));
#108=ORIENTED_EDGE('',*,*,#135,.T.);
#109=ORIENTED_EDGE('',*,*,#135,.F.);
#110=ORIENTED_EDGE('',*,*,#136,.T.);
#111=ORIENTED_EDGE('',*,*,#136,.F.);
#112=ORIENTED_EDGE('',*,*,#137,.T.);
#113=ORIENTED_EDGE('',*,*,#137,.F.);
#114=ORIENTED_EDGE('',*,*,#138,.T.);
#115=ORIENTED_EDGE('',*,*,#138,.F.);
#116=ORIENTED_EDGE('',*,*,#139,.T.);
#117=ORIENTED_EDGE('',*,*,#139,.F.);
#118=ORIENTED_EDGE('',*,*,#140,.T.);
#119=ORIENTED_EDGE('',*,*,#140,.F.);
#120=ORIENTED_EDGE('',*,*,#141,.T.);
#121=ORIENTED_EDGE('',*,*,#142,.T.);
#122=ORIENTED_EDGE('',*,*,#142,.F.);
#123=ORIENTED_EDGE('',*,*,#143,.T.);
#124=ORIENTED_EDGE('',*,*,#143,.F.);
#125=ORIENTED_EDGE('',*,*,#141,.F.);
#126=VERTEX_POINT('',#278);
#127=VERTEX_POINT('',#281);
#128=VERTEX_POINT('',#284);
#129=VERTEX_POINT('',#287);
#130=VERTEX_POINT('',#290);
#131=VERTEX_POINT('',#293);
#132=VERTEX_POINT('',#297);
#133=VERTEX_POINT('',#300);
#134=VERTEX_POINT('',#303);
#135=EDGE_CURVE('',#126,#126,#144,.T.);
#136=EDGE_CURVE('',#127,#127,#145,.T.);
#137=EDGE_CURVE('',#128,#128,#146,.T.);
#138=EDGE_CURVE('',#129,#129,#147,.T.);
#139=EDGE_CURVE('',#130,#130,#148,.T.);
#140=EDGE_CURVE('',#131,#131,#149,.T.);
#141=EDGE_CURVE('',#132,#132,#150,.T.);
#142=EDGE_CURVE('',#133,#133,#151,.T.);
#143=EDGE_CURVE('',#134,#134,#152,.T.);
#144=CIRCLE('',#188,3.60000000000002);
#145=CIRCLE('',#190,4.);
#146=CIRCLE('',#192,4.);
#147=CIRCLE('',#194,3.36199999999999);
#148=CIRCLE('',#196,3.362);
#149=CIRCLE('',#198,3.487);
#150=CIRCLE('',#201,3.48700000000001);
#151=CIRCLE('',#203,3.00250000000001);
#152=CIRCLE('',#205,3.5025);
#153=CURVE_STYLE('',#158,POSITIVE_LENGTH_MEASURE(0.18),#157);
#154=CURVE_STYLE('',#159,POSITIVE_LENGTH_MEASURE(0.18),#181);
#155=CURVE_STYLE('',#160,POSITIVE_LENGTH_MEASURE(0.18),#181);
#156=CURVE_STYLE('',#161,POSITIVE_LENGTH_MEASURE(0.18),#181);
#157=DRAUGHTING_PRE_DEFINED_COLOUR('blue');
#158=DRAUGHTING_PRE_DEFINED_CURVE_FONT('continuous');
#159=DRAUGHTING_PRE_DEFINED_CURVE_FONT('continuous');
#160=DRAUGHTING_PRE_DEFINED_CURVE_FONT('continuous');
#161=DRAUGHTING_PRE_DEFINED_CURVE_FONT('continuous');
#162=B_SPLINE_CURVE_WITH_KNOTS('CUTTING PART LINE',3,(#258,#259,#260,#261,
#262,#263,#264,#265,#266,#267,#268,#269,#270,#271,#272,#273),
 .UNSPECIFIED.,.T.,.F.,(4,3,3,3,3,4),(0.,0.413472863,0.5035841051,0.9041361414,
0.922409233,1.),.UNSPECIFIED.);
#163=PRESENTATION_LAYER_ASSIGNMENT('1','Layer 1',(#257,#162,#185,#186,#187,
#46,#47));
#164=STYLED_ITEM('',(#171),#257);
#165=STYLED_ITEM('',(#172),#162);
#166=STYLED_ITEM('',(#173),#185);
#167=STYLED_ITEM('',(#174),#186);
#168=STYLED_ITEM('',(#175),#187);
#169=STYLED_ITEM('',(#176),#46);
#170=STYLED_ITEM('',(#177),#47);
#171=PRESENTATION_STYLE_ASSIGNMENT((#178));
#172=PRESENTATION_STYLE_ASSIGNMENT((#153));
#173=PRESENTATION_STYLE_ASSIGNMENT((#154));
#174=PRESENTATION_STYLE_ASSIGNMENT((#155));
#175=PRESENTATION_STYLE_ASSIGNMENT((#156));
#176=PRESENTATION_STYLE_ASSIGNMENT((#36));
#177=PRESENTATION_STYLE_ASSIGNMENT((#37));
#178=POINT_STYLE('',#179,POSITIVE_LENGTH_MEASURE(3.),#180);
#179=PRE_DEFINED_POINT_MARKER_SYMBOL('plus');
#180=COLOUR_RGB('Medium Royal',0.301960784313725,0.427450980392157,0.701960784313725);
#181=COLOUR_RGB('Medium Maroon',0.6,0.4,0.4);
#182=COLOUR_RGB('medium gray',0.490196078431373,0.490196078431373,0.490196078431373);
#183=COLOUR_RGB('light gray',0.8,0.8,0.8);
#184=AXIS2_PLACEMENT_3D('',#256,#208,#209);
#185=AXIS2_PLACEMENT_3D('CIP',#274,#210,#211);
#186=AXIS2_PLACEMENT_3D('MCS',#275,#212,#213);
#187=AXIS2_PLACEMENT_3D('PCS',#276,#214,#215);
#188=AXIS2_PLACEMENT_3D('',#277,#216,#217);
#189=AXIS2_PLACEMENT_3D('',#279,#218,#219);
#190=AXIS2_PLACEMENT_3D('',#280,#220,#221);
#191=AXIS2_PLACEMENT_3D('',#282,#222,#223);
#192=AXIS2_PLACEMENT_3D('',#283,#224,#225);
#193=AXIS2_PLACEMENT_3D('',#285,#226,#227);
#194=AXIS2_PLACEMENT_3D('',#286,#228,#229);
#195=AXIS2_PLACEMENT_3D('',#288,#230,#231);
#196=AXIS2_PLACEMENT_3D('',#289,#232,#233);
#197=AXIS2_PLACEMENT_3D('',#291,#234,#235);
#198=AXIS2_PLACEMENT_3D('',#292,#236,#237);
#199=AXIS2_PLACEMENT_3D('',#294,#238,#239);
#200=AXIS2_PLACEMENT_3D('',#295,#240,#241);
#201=AXIS2_PLACEMENT_3D('',#296,#242,#243);
#202=AXIS2_PLACEMENT_3D('',#298,#244,#245);
#203=AXIS2_PLACEMENT_3D('',#299,#246,#247);
#204=AXIS2_PLACEMENT_3D('',#301,#248,#249);
#205=AXIS2_PLACEMENT_3D('',#302,#250,#251);
#206=AXIS2_PLACEMENT_3D('',#304,#252,#253);
#207=AXIS2_PLACEMENT_3D('',#305,#254,#255);
#208=DIRECTION('',(0.,0.,1.));
#209=DIRECTION('',(1.,0.,0.));
#210=DIRECTION('',(0.,0.,1.));
#211=DIRECTION('',(1.,0.,0.));
#212=DIRECTION('',(0.,0.,1.));
#213=DIRECTION('',(1.,0.,0.));
#214=DIRECTION('',(0.,0.,1.));
#215=DIRECTION('',(1.,0.,0.));
#216=DIRECTION('',(0.,0.,1.));
#217=DIRECTION('',(1.,0.,0.));
#218=DIRECTION('',(0.,0.,-1.));
#219=DIRECTION('',(-1.,0.,0.));
#220=DIRECTION('',(0.,0.,1.));
#221=DIRECTION('',(1.,0.,0.));
#222=DIRECTION('',(0.,0.,-1.));
#223=DIRECTION('',(-1.,0.,5.52899912661978E-17));
#224=DIRECTION('',(0.,0.,1.));
#225=DIRECTION('',(1.,0.,0.));
#226=DIRECTION('',(0.,0.,1.));
#227=DIRECTION('',(1.,0.,0.));
#228=DIRECTION('',(0.,0.,1.));
#229=DIRECTION('',(1.,0.,0.));
#230=DIRECTION('',(0.,0.,1.));
#231=DIRECTION('',(1.,0.,-8.61006434245625E-17));
#232=DIRECTION('',(0.,0.,1.));
#233=DIRECTION('',(1.,0.,0.));
#234=DIRECTION('',(0.,0.,1.));
#235=DIRECTION('',(1.,0.,0.));
#236=DIRECTION('',(0.,0.,1.));
#237=DIRECTION('',(1.,0.,0.));
#238=DIRECTION('',(0.,0.,-1.));
#239=DIRECTION('',(-1.,0.,3.47303612817649E-16));
#240=DIRECTION('',(0.,0.,1.));
#241=DIRECTION('',(1.,0.,0.));
#242=DIRECTION('',(0.,0.,1.));
#243=DIRECTION('',(1.,0.,0.));
#244=DIRECTION('',(0.,0.,1.));
#245=DIRECTION('',(1.,0.,0.));
#246=DIRECTION('',(0.,0.,-1.));
#247=DIRECTION('',(-1.,0.,0.));
#248=DIRECTION('',(0.,0.,1.));
#249=DIRECTION('',(1.,0.,0.));
#250=DIRECTION('',(0.,0.,-1.));
#251=DIRECTION('',(-1.,0.,0.));
#252=DIRECTION('',(0.,0.,1.));
#253=DIRECTION('',(1.,0.,0.));
#254=DIRECTION('',(0.,0.,-1.));
#255=DIRECTION('',(-1.,0.,1.23275929893978E-14));
#256=CARTESIAN_POINT('',(0.,0.,0.));
#257=CARTESIAN_POINT('CRP',(-3.5025,0.,-65.));
#258=CARTESIAN_POINT('',(0.,0.,-65.));
#259=CARTESIAN_POINT('',(0.,0.,-59.6666666666667));
#260=CARTESIAN_POINT('',(0.,0.,-54.3333333333333));
#261=CARTESIAN_POINT('',(0.,0.,-49.));
#262=CARTESIAN_POINT('',(-1.16233333333333,0.,-48.9999999999999));
#263=CARTESIAN_POINT('',(-2.32466666666667,0.,-48.9999999999997));
#264=CARTESIAN_POINT('',(-3.487,0.,-48.9999999999995));
#265=CARTESIAN_POINT('',(-3.49216666666663,0.,-54.1666666666663));
#266=CARTESIAN_POINT('',(-3.49733333333325,0.,-59.3333333333331));
#267=CARTESIAN_POINT('',(-3.50249999999987,0.,-64.4999999999998));
#268=CARTESIAN_POINT('',(-3.33583333333325,0.,-64.6666666666666));
#269=CARTESIAN_POINT('',(-3.16916666666663,0.,-64.8333333333333));
#270=CARTESIAN_POINT('',(-3.00250000000001,0.,-65.));
#271=CARTESIAN_POINT('',(-2.00166666666667,0.,-65.));
#272=CARTESIAN_POINT('',(-1.00083333333334,0.,-65.));
#273=CARTESIAN_POINT('',(-4.44089209850063E-16,0.,-65.));
#274=CARTESIAN_POINT('',(0.,0.,-65.));
#275=CARTESIAN_POINT('',(0.,0.,-32.));
#276=CARTESIAN_POINT('',(0.,0.,0.));
#277=CARTESIAN_POINT('',(0.,0.,0.));
#278=CARTESIAN_POINT('',(3.60000000000002,0.,0.));
#279=CARTESIAN_POINT('',(3.60000000000002,1.19904086659518E-14,-8.62136629146198E-16));
#280=CARTESIAN_POINT('',(0.,0.,-0.400000000000011));
#281=CARTESIAN_POINT('',(4.,0.,-0.400000000000011));
#282=CARTESIAN_POINT('',(0.,0.,-0.400000000000011));
#283=CARTESIAN_POINT('',(0.,0.,-32.));
#284=CARTESIAN_POINT('',(4.,0.,-32.));
#285=CARTESIAN_POINT('',(0.,0.,-65.));
#286=CARTESIAN_POINT('',(0.,0.,-34.));
#287=CARTESIAN_POINT('',(3.36199999999999,0.,-34.));
#288=CARTESIAN_POINT('',(0.,0.,-34.));
#289=CARTESIAN_POINT('',(0.,0.,-48.2910897725477));
#290=CARTESIAN_POINT('',(3.362,0.,-48.2910897725477));
#291=CARTESIAN_POINT('',(0.,0.,-65.));
#292=CARTESIAN_POINT('',(0.,0.,-49.));
#293=CARTESIAN_POINT('',(3.487,0.,-49.));
#294=CARTESIAN_POINT('',(0.,0.,-49.));
#295=CARTESIAN_POINT('',(0.,0.,-49.));
#296=CARTESIAN_POINT('',(0.,0.,-49.));
#297=CARTESIAN_POINT('',(3.48700000000001,0.,-49.));
#298=CARTESIAN_POINT('',(0.,0.,-49.));
#299=CARTESIAN_POINT('',(0.,0.,-65.));
#300=CARTESIAN_POINT('',(-3.00250000000001,0.,-65.));
#301=CARTESIAN_POINT('',(-4.44089209850063E-15,-1.57772181044202E-29,-65.));
#302=CARTESIAN_POINT('',(0.,0.,-64.4999999999997));
#303=CARTESIAN_POINT('',(-3.5025,0.,-64.4999999999997));
#304=CARTESIAN_POINT('',(0.,0.,-64.4999999999997));
#305=CARTESIAN_POINT('',(0.,0.,-65.));
#306=MECHANICAL_DESIGN_GEOMETRIC_PRESENTATION_REPRESENTATION('',(#164,#165,
#166,#167,#168,#169,#170),#307);
#307=(
GEOMETRIC_REPRESENTATION_CONTEXT(3)
GLOBAL_UNCERTAINTY_ASSIGNED_CONTEXT((#308))
GLOBAL_UNIT_ASSIGNED_CONTEXT((#314,#310,#309))
REPRESENTATION_CONTEXT('N5TS-7H7-EB45_Basic','TOP_LEVEL_ASSEMBLY_PART')
);
#308=UNCERTAINTY_MEASURE_WITH_UNIT(LENGTH_MEASURE(2.E-5),#314,
'DISTANCE_ACCURACY_VALUE','Maximum Tolerance applied to model');
#309=(
NAMED_UNIT(*)
SI_UNIT($,.STERADIAN.)
SOLID_ANGLE_UNIT()
);
#310=(
CONVERSION_BASED_UNIT('DEGREE',#312)
NAMED_UNIT(#311)
PLANE_ANGLE_UNIT()
);
#311=DIMENSIONAL_EXPONENTS(0.,0.,0.,0.,0.,0.,0.);
#312=PLANE_ANGLE_MEASURE_WITH_UNIT(PLANE_ANGLE_MEASURE(0.0174532925),#313);
#313=(
NAMED_UNIT(*)
PLANE_ANGLE_UNIT()
SI_UNIT($,.RADIAN.)
);
#314=(
LENGTH_UNIT()
NAMED_UNIT(*)
SI_UNIT(.MILLI.,.METRE.)
);
ENDSEC;
END-ISO-10303-21;
