ISO-10303-21;
HEADER;
/* Generated by software containing ST-Developer
 * from STEP Tools, Inc. (www.steptools.com) 
 */
/* OPTION: using custom schema-name function */

FILE_DESCRIPTION(
/* description */ (''),
/* implementation_level */ '2;1');

FILE_NAME(
/* name */ 'S4321-100E2B.0Z2_Basic.stp',
/* time_stamp */ '2024-05-24T13:00:38+06:00',
/* author */ (''),
/* organization */ (''),
/* preprocessor_version */ 'ST-DEVELOPER v16.7',
/* originating_system */ 'SIEMENS PLM Software NX 12.0',
/* authorisation */ '');

FILE_SCHEMA (('AUTOMOTIVE_DESIGN { 1 0 10303 214 3 1 1 1 }'));
ENDSEC;

DATA;
#10=CONSTRUCTIVE_GEOMETRY_REPRESENTATION_RELATIONSHIP(
'supplemental geometry','',#34,#11);
#11=CONSTRUCTIVE_GEOMETRY_REPRESENTATION('supplemental geometry',(#187,
#188,#189),#300);
#12=GEOMETRICALLY_BOUNDED_WIREFRAME_SHAPE_REPRESENTATION(
'inpu3938E096z3e9-None',(#35),#300);
#13=PROPERTY_DEFINITION_REPRESENTATION(#17,#15);
#14=PROPERTY_DEFINITION_REPRESENTATION(#18,#16);
#15=REPRESENTATION('',(#19),#300);
#16=REPRESENTATION('',(#20),#300);
#17=PROPERTY_DEFINITION('pmi validation property','',#25);
#18=PROPERTY_DEFINITION('pmi validation property','',#25);
#19=VALUE_REPRESENTATION_ITEM('number of annotations',COUNT_MEASURE(0.));
#20=VALUE_REPRESENTATION_ITEM('number of views',COUNT_MEASURE(0.));
#21=SHAPE_REPRESENTATION_RELATIONSHIP('None',
'relationship between inpu3938E096z3e9-None and inpu3938E096z3e9-None',
#34,#23);
#22=SHAPE_REPRESENTATION_RELATIONSHIP('None',
'relationship between inpu3938E096z3e9-None and inpu3938E096z3e9-None',
#34,#12);
#23=ADVANCED_BREP_SHAPE_REPRESENTATION('inpu3938E096z3e9-None',(#50,#51),
#300);
#24=SHAPE_DEFINITION_REPRESENTATION(#25,#34);
#25=PRODUCT_DEFINITION_SHAPE('','',#26);
#26=PRODUCT_DEFINITION(' ','',#28,#27);
#27=PRODUCT_DEFINITION_CONTEXT('part definition',#33,'design');
#28=PRODUCT_DEFINITION_FORMATION_WITH_SPECIFIED_SOURCE(' ',' ',#30,
 .NOT_KNOWN.);
#29=PRODUCT_RELATED_PRODUCT_CATEGORY('part','',(#30));
#30=PRODUCT('inpu3938E096z3e9','inpu3938E096z3e9',' ',(#31));
#31=PRODUCT_CONTEXT(' ',#33,'mechanical');
#32=APPLICATION_PROTOCOL_DEFINITION('international standard',
'automotive_design',2010,#33);
#33=APPLICATION_CONTEXT(
'core data for automotive mechanical design processes');
#34=SHAPE_REPRESENTATION('inpu3938E096z3e9-None',(#186),#300);
#35=GEOMETRIC_CURVE_SET('None',(#253,#254,#255,#256,#151));
#36=CYLINDRICAL_SURFACE('',#203,4.75);
#37=CYLINDRICAL_SURFACE('',#206,5.);
#38=TOROIDAL_SURFACE('',#201,2.99869101067312,2.);
#39=TOROIDAL_SURFACE('',#205,9.74999999999999,5.);
#40=SURFACE_STYLE_USAGE(.BOTH.,#42);
#41=SURFACE_STYLE_USAGE(.BOTH.,#43);
#42=SURFACE_SIDE_STYLE('',(#44));
#43=SURFACE_SIDE_STYLE('',(#45));
#44=SURFACE_STYLE_FILL_AREA(#46);
#45=SURFACE_STYLE_FILL_AREA(#47);
#46=FILL_AREA_STYLE('',(#48));
#47=FILL_AREA_STYLE('',(#49));
#48=FILL_AREA_STYLE_COLOUR('',#184);
#49=FILL_AREA_STYLE_COLOUR('',#185);
#50=MANIFOLD_SOLID_BREP('CUT',#52);
#51=MANIFOLD_SOLID_BREP('NOCUT',#53);
#52=CLOSED_SHELL('',(#71,#72,#73));
#53=CLOSED_SHELL('',(#74,#75,#76,#77,#78,#79,#80));
#54=PLANE('',#194);
#55=PLANE('',#198);
#56=PLANE('',#207);
#57=CONICAL_SURFACE('',#193,5.,0.00500000000000089);
#58=CONICAL_SURFACE('',#197,5.,44.9999999999997);
#59=FACE_BOUND('',#87,.T.);
#60=FACE_BOUND('',#88,.T.);
#61=FACE_BOUND('',#90,.T.);
#62=FACE_BOUND('',#91,.T.);
#63=FACE_BOUND('',#93,.T.);
#64=FACE_BOUND('',#94,.T.);
#65=FACE_BOUND('',#95,.T.);
#66=FACE_BOUND('',#96,.T.);
#67=FACE_BOUND('',#97,.T.);
#68=FACE_BOUND('',#98,.T.);
#69=FACE_BOUND('',#99,.T.);
#70=FACE_BOUND('',#100,.T.);
#71=ADVANCED_FACE('',(#82),#81,.T.);
#72=ADVANCED_FACE('',(#59,#60),#57,.T.);
#73=ADVANCED_FACE('',(#83),#54,.F.);
#74=ADVANCED_FACE('',(#61,#62),#58,.T.);
#75=ADVANCED_FACE('',(#84),#55,.T.);
#76=ADVANCED_FACE('',(#63,#64),#38,.T.);
#77=ADVANCED_FACE('',(#65,#66),#36,.T.);
#78=ADVANCED_FACE('',(#67,#68),#39,.F.);
#79=ADVANCED_FACE('',(#69,#70),#37,.T.);
#80=ADVANCED_FACE('',(#85),#56,.T.);
#81=SPHERICAL_SURFACE('',#191,5.);
#82=FACE_OUTER_BOUND('',#86,.T.);
#83=FACE_OUTER_BOUND('',#89,.T.);
#84=FACE_OUTER_BOUND('',#92,.T.);
#85=FACE_OUTER_BOUND('',#101,.T.);
#86=EDGE_LOOP('',(#102));
#87=EDGE_LOOP('',(#103));
#88=EDGE_LOOP('',(#104));
#89=EDGE_LOOP('',(#105));
#90=EDGE_LOOP('',(#106));
#91=EDGE_LOOP('',(#107));
#92=EDGE_LOOP('',(#108));
#93=EDGE_LOOP('',(#109));
#94=EDGE_LOOP('',(#110));
#95=EDGE_LOOP('',(#111));
#96=EDGE_LOOP('',(#112));
#97=EDGE_LOOP('',(#113));
#98=EDGE_LOOP('',(#114));
#99=EDGE_LOOP('',(#115));
#100=EDGE_LOOP('',(#116));
#101=EDGE_LOOP('',(#117));
#102=ORIENTED_EDGE('',*,*,#126,.T.);
#103=ORIENTED_EDGE('',*,*,#127,.F.);
#104=ORIENTED_EDGE('',*,*,#126,.F.);
#105=ORIENTED_EDGE('',*,*,#127,.T.);
#106=ORIENTED_EDGE('',*,*,#128,.T.);
#107=ORIENTED_EDGE('',*,*,#129,.F.);
#108=ORIENTED_EDGE('',*,*,#128,.F.);
#109=ORIENTED_EDGE('',*,*,#130,.T.);
#110=ORIENTED_EDGE('',*,*,#131,.F.);
#111=ORIENTED_EDGE('',*,*,#132,.T.);
#112=ORIENTED_EDGE('',*,*,#130,.F.);
#113=ORIENTED_EDGE('',*,*,#133,.T.);
#114=ORIENTED_EDGE('',*,*,#132,.F.);
#115=ORIENTED_EDGE('',*,*,#129,.T.);
#116=ORIENTED_EDGE('',*,*,#133,.F.);
#117=ORIENTED_EDGE('',*,*,#131,.T.);
#118=VERTEX_POINT('',#274);
#119=VERTEX_POINT('',#277);
#120=VERTEX_POINT('',#281);
#121=VERTEX_POINT('',#283);
#122=VERTEX_POINT('',#287);
#123=VERTEX_POINT('',#289);
#124=VERTEX_POINT('',#292);
#125=VERTEX_POINT('',#295);
#126=EDGE_CURVE('',#118,#118,#134,.T.);
#127=EDGE_CURVE('',#119,#119,#135,.T.);
#128=EDGE_CURVE('',#120,#120,#136,.T.);
#129=EDGE_CURVE('',#121,#121,#137,.T.);
#130=EDGE_CURVE('',#122,#122,#138,.T.);
#131=EDGE_CURVE('',#123,#123,#139,.T.);
#132=EDGE_CURVE('',#124,#124,#140,.T.);
#133=EDGE_CURVE('',#125,#125,#141,.T.);
#134=CIRCLE('',#190,5.);
#135=CIRCLE('',#192,4.99869100305768);
#136=CIRCLE('',#195,4.3);
#137=CIRCLE('',#196,5.);
#138=CIRCLE('',#199,4.75);
#139=CIRCLE('',#200,4.99869100305768);
#140=CIRCLE('',#202,4.75);
#141=CIRCLE('',#204,5.);
#142=CURVE_STYLE('',#147,POSITIVE_LENGTH_MEASURE(0.18),#146);
#143=CURVE_STYLE('',#148,POSITIVE_LENGTH_MEASURE(0.18),#183);
#144=CURVE_STYLE('',#149,POSITIVE_LENGTH_MEASURE(0.18),#183);
#145=CURVE_STYLE('',#150,POSITIVE_LENGTH_MEASURE(0.18),#183);
#146=DRAUGHTING_PRE_DEFINED_COLOUR('blue');
#147=DRAUGHTING_PRE_DEFINED_CURVE_FONT('continuous');
#148=DRAUGHTING_PRE_DEFINED_CURVE_FONT('continuous');
#149=DRAUGHTING_PRE_DEFINED_CURVE_FONT('continuous');
#150=DRAUGHTING_PRE_DEFINED_CURVE_FONT('continuous');
#151=TRIMMED_CURVE('CUTTING PART LINE',#152,(PARAMETER_VALUE(0.)),(
PARAMETER_VALUE(1.)),.T.,.PARAMETER.);
#152=(
BOUNDED_CURVE()
B_SPLINE_CURVE(3,(#257,#258,#259,#260,#261,#262,#263,#264,#265,#266,#267,
#268,#269),.UNSPECIFIED.,.T.,.F.)
B_SPLINE_CURVE_WITH_KNOTS((1,3,3,3,3,3,1),(-0.104460016997905,0.,0.417949486914437,
0.582077866621454,0.895539983002095,1.,1.41794948691444),.UNSPECIFIED.)
CURVE()
GEOMETRIC_REPRESENTATION_ITEM()
RATIONAL_B_SPLINE_CURVE((1.,1.,1.,1.,0.804737854124365,0.804737854124365,
1.,1.,1.,1.,1.,1.,1.))
REPRESENTATION_ITEM('CUTTING PART LINE')
);
#153=PRESENTATION_LAYER_ASSIGNMENT('1','Layer 1',(#253,#254,#255,#256,#151,
#187,#188,#189,#50,#51));
#154=STYLED_ITEM('',(#164),#253);
#155=STYLED_ITEM('',(#165),#254);
#156=STYLED_ITEM('',(#166),#255);
#157=STYLED_ITEM('',(#167),#256);
#158=STYLED_ITEM('',(#168),#151);
#159=STYLED_ITEM('',(#169),#187);
#160=STYLED_ITEM('',(#170),#188);
#161=STYLED_ITEM('',(#171),#189);
#162=STYLED_ITEM('',(#172),#50);
#163=STYLED_ITEM('',(#173),#51);
#164=PRESENTATION_STYLE_ASSIGNMENT((#174));
#165=PRESENTATION_STYLE_ASSIGNMENT((#175));
#166=PRESENTATION_STYLE_ASSIGNMENT((#176));
#167=PRESENTATION_STYLE_ASSIGNMENT((#177));
#168=PRESENTATION_STYLE_ASSIGNMENT((#142));
#169=PRESENTATION_STYLE_ASSIGNMENT((#143));
#170=PRESENTATION_STYLE_ASSIGNMENT((#144));
#171=PRESENTATION_STYLE_ASSIGNMENT((#145));
#172=PRESENTATION_STYLE_ASSIGNMENT((#40));
#173=PRESENTATION_STYLE_ASSIGNMENT((#41));
#174=POINT_STYLE('',#178,POSITIVE_LENGTH_MEASURE(3.),#182);
#175=POINT_STYLE('',#179,POSITIVE_LENGTH_MEASURE(3.),#183);
#176=POINT_STYLE('',#180,POSITIVE_LENGTH_MEASURE(3.),#183);
#177=POINT_STYLE('',#181,POSITIVE_LENGTH_MEASURE(3.),#183);
#178=PRE_DEFINED_POINT_MARKER_SYMBOL('plus');
#179=PRE_DEFINED_POINT_MARKER_SYMBOL('plus');
#180=PRE_DEFINED_POINT_MARKER_SYMBOL('plus');
#181=PRE_DEFINED_POINT_MARKER_SYMBOL('plus');
#182=COLOUR_RGB('Medium Royal',0.2,0.4,0.8);
#183=COLOUR_RGB('Pale Maroon',0.811749446860456,0.603921568627451,0.611749446860456);
#184=COLOUR_RGB('Light Gray',0.8,0.8,0.8);
#185=COLOUR_RGB('Medium Gray',0.490196078431373,0.490196078431373,0.490196078431373);
#186=AXIS2_PLACEMENT_3D('',#252,#208,#209);
#187=AXIS2_PLACEMENT_3D('MCS',#270,#210,#211);
#188=AXIS2_PLACEMENT_3D('PCS',#271,#212,#213);
#189=AXIS2_PLACEMENT_3D('CIP',#272,#214,#215);
#190=AXIS2_PLACEMENT_3D('',#273,#216,#217);
#191=AXIS2_PLACEMENT_3D('',#275,#218,#219);
#192=AXIS2_PLACEMENT_3D('',#276,#220,#221);
#193=AXIS2_PLACEMENT_3D('',#278,#222,#223);
#194=AXIS2_PLACEMENT_3D('',#279,#224,#225);
#195=AXIS2_PLACEMENT_3D('',#280,#226,#227);
#196=AXIS2_PLACEMENT_3D('',#282,#228,#229);
#197=AXIS2_PLACEMENT_3D('',#284,#230,#231);
#198=AXIS2_PLACEMENT_3D('',#285,#232,#233);
#199=AXIS2_PLACEMENT_3D('',#286,#234,#235);
#200=AXIS2_PLACEMENT_3D('',#288,#236,#237);
#201=AXIS2_PLACEMENT_3D('',#290,#238,#239);
#202=AXIS2_PLACEMENT_3D('',#291,#240,#241);
#203=AXIS2_PLACEMENT_3D('',#293,#242,#243);
#204=AXIS2_PLACEMENT_3D('',#294,#244,#245);
#205=AXIS2_PLACEMENT_3D('',#296,#246,#247);
#206=AXIS2_PLACEMENT_3D('',#297,#248,#249);
#207=AXIS2_PLACEMENT_3D('',#298,#250,#251);
#208=DIRECTION('',(0.,0.,1.));
#209=DIRECTION('',(1.,0.,0.));
#210=DIRECTION('',(0.,0.,1.));
#211=DIRECTION('',(1.,0.,0.));
#212=DIRECTION('',(0.,0.,1.));
#213=DIRECTION('',(1.,0.,0.));
#214=DIRECTION('',(0.,0.,1.));
#215=DIRECTION('',(1.,0.,0.));
#216=DIRECTION('',(0.,0.,-1.));
#217=DIRECTION('',(-1.,0.,0.));
#218=DIRECTION('',(-6.12323399573677E-17,0.,-1.));
#219=DIRECTION('',(-1.,0.,0.));
#220=DIRECTION('',(0.,0.,1.));
#221=DIRECTION('',(-1.,0.,0.));
#222=DIRECTION('',(0.,0.,-1.));
#223=DIRECTION('',(-1.,0.,1.09117836930588E-14));
#224=DIRECTION('',(0.,0.,-1.));
#225=DIRECTION('',(-1.,0.,0.));
#226=DIRECTION('',(0.,0.,-1.));
#227=DIRECTION('',(-1.,0.,0.));
#228=DIRECTION('',(0.,0.,-1.));
#229=DIRECTION('',(-1.,0.,0.));
#230=DIRECTION('',(0.,0.,-1.));
#231=DIRECTION('',(-1.,0.,8.2636702897901E-17));
#232=DIRECTION('',(0.,0.,1.));
#233=DIRECTION('',(1.,0.,0.));
#234=DIRECTION('',(0.,0.,-1.));
#235=DIRECTION('',(-1.,0.,0.));
#236=DIRECTION('',(0.,0.,-1.));
#237=DIRECTION('',(-1.,0.,0.));
#238=DIRECTION('',(0.,0.,-1.));
#239=DIRECTION('',(-1.,0.,0.));
#240=DIRECTION('',(0.,0.,-1.));
#241=DIRECTION('',(-1.,0.,0.));
#242=DIRECTION('',(0.,0.,-1.));
#243=DIRECTION('',(-1.,0.,0.));
#244=DIRECTION('',(0.,0.,-1.));
#245=DIRECTION('',(-1.,0.,0.));
#246=DIRECTION('',(0.,0.,-1.));
#247=DIRECTION('',(-1.,0.,0.));
#248=DIRECTION('',(0.,0.,-1.));
#249=DIRECTION('',(-1.,0.,0.));
#250=DIRECTION('',(0.,0.,-1.));
#251=DIRECTION('',(-1.,0.,0.));
#252=CARTESIAN_POINT('',(0.,0.,0.));
#253=CARTESIAN_POINT('CRP',(-5.,0.,-72.));
#254=CARTESIAN_POINT('',(0.,0.,-39.4387505004004));
#255=CARTESIAN_POINT('',(0.,0.,0.));
#256=CARTESIAN_POINT('',(0.,0.,-72.));
#257=CARTESIAN_POINT('',(0.,0.,-52.));
#258=CARTESIAN_POINT('',(0.,0.,-58.6666666666667));
#259=CARTESIAN_POINT('',(0.,0.,-65.3333333333334));
#260=CARTESIAN_POINT('',(1.5308084989342E-16,0.,-72.));
#261=CARTESIAN_POINT('',(-2.92893218813452,0.,-72.));
#262=CARTESIAN_POINT('',(-5.,0.,-69.9289321881346));
#263=CARTESIAN_POINT('',(-5.,0.,-67.));
#264=CARTESIAN_POINT('',(-4.9995636676859,0.,-62.));
#265=CARTESIAN_POINT('',(-4.99912733537179,0.,-57.));
#266=CARTESIAN_POINT('',(-4.99869100305768,0.,-52.));
#267=CARTESIAN_POINT('',(-3.33246066870512,0.,-52.));
#268=CARTESIAN_POINT('',(-1.66623033435256,0.,-52.));
#269=CARTESIAN_POINT('',(0.,0.,-52.));
#270=CARTESIAN_POINT('',(0.,0.,-39.4387505004004));
#271=CARTESIAN_POINT('',(0.,0.,0.));
#272=CARTESIAN_POINT('',(0.,0.,-72.));
#273=CARTESIAN_POINT('',(0.,0.,-67.));
#274=CARTESIAN_POINT('',(-5.,0.,-67.));
#275=CARTESIAN_POINT('',(0.,0.,-67.));
#276=CARTESIAN_POINT('',(0.,0.,-52.));
#277=CARTESIAN_POINT('',(-4.99869100305768,0.,-52.));
#278=CARTESIAN_POINT('',(0.,0.,-67.));
#279=CARTESIAN_POINT('',(0.,0.,-52.));
#280=CARTESIAN_POINT('',(0.,0.,0.));
#281=CARTESIAN_POINT('',(-4.3,0.,0.));
#282=CARTESIAN_POINT('',(0.,0.,-0.700000000000006));
#283=CARTESIAN_POINT('',(-5.,0.,-0.700000000000006));
#284=CARTESIAN_POINT('',(0.,0.,-0.700000000000006));
#285=CARTESIAN_POINT('',(4.3,0.,7.38751520054561E-17));
#286=CARTESIAN_POINT('',(0.,0.,-51.0342983380103));
#287=CARTESIAN_POINT('',(-4.75,0.,-51.0342983380103));
#288=CARTESIAN_POINT('',(0.,0.,-52.));
#289=CARTESIAN_POINT('',(-4.99869100305768,0.,-52.));
#290=CARTESIAN_POINT('',(0.,0.,-52.000174532925));
#291=CARTESIAN_POINT('',(0.,0.,-41.));
#292=CARTESIAN_POINT('',(-4.75,0.,-41.));
#293=CARTESIAN_POINT('',(0.,0.,-40.));
#294=CARTESIAN_POINT('',(0.,0.,-39.4387505004004));
#295=CARTESIAN_POINT('',(-5.,0.,-39.4387505004004));
#296=CARTESIAN_POINT('',(0.,0.,-41.));
#297=CARTESIAN_POINT('',(0.,0.,-40.));
#298=CARTESIAN_POINT('',(0.,0.,-52.));
#299=MECHANICAL_DESIGN_GEOMETRIC_PRESENTATION_REPRESENTATION('',(#154,#155,
#156,#157,#158,#159,#160,#161,#162,#163),#300);
#300=(
GEOMETRIC_REPRESENTATION_CONTEXT(3)
GLOBAL_UNCERTAINTY_ASSIGNED_CONTEXT((#301))
GLOBAL_UNIT_ASSIGNED_CONTEXT((#307,#303,#302))
REPRESENTATION_CONTEXT('S4321-100E2B','TOP_LEVEL_ASSEMBLY_PART')
);
#301=UNCERTAINTY_MEASURE_WITH_UNIT(LENGTH_MEASURE(2.E-5),#307,
'DISTANCE_ACCURACY_VALUE','Maximum Tolerance applied to model');
#302=(
NAMED_UNIT(*)
SI_UNIT($,.STERADIAN.)
SOLID_ANGLE_UNIT()
);
#303=(
CONVERSION_BASED_UNIT('DEGREE',#305)
NAMED_UNIT(#304)
PLANE_ANGLE_UNIT()
);
#304=DIMENSIONAL_EXPONENTS(0.,0.,0.,0.,0.,0.,0.);
#305=PLANE_ANGLE_MEASURE_WITH_UNIT(PLANE_ANGLE_MEASURE(0.0174532925),#306);
#306=(
NAMED_UNIT(*)
PLANE_ANGLE_UNIT()
SI_UNIT($,.RADIAN.)
);
#307=(
LENGTH_UNIT()
NAMED_UNIT(*)
SI_UNIT(.MILLI.,.METRE.)
);
ENDSEC;
END-ISO-10303-21;
