ISO-10303-21;
HEADER;
/* Generated by software containing ST-Developer
 * from STEP Tools, Inc. (www.steptools.com) 
 */
/* OPTION: using custom schema-name function */

FILE_DESCRIPTION(
/* description */ (''),
/* implementation_level */ '2;1');

FILE_NAME(
/* name */ 'S4321-160E2B.3Z2_Basic.stp',
/* time_stamp */ '2024-05-17T16:50:35+05:00',
/* author */ (''),
/* organization */ (''),
/* preprocessor_version */ 'ST-DEVELOPER v16.7',
/* originating_system */ 'SIEMENS PLM Software NX 12.0',
/* authorisation */ '');

FILE_SCHEMA (('AUTOMOTIVE_DESIGN { 1 0 10303 214 3 1 1 1 }'));
ENDSEC;

DATA;
#10=CONSTRUCTIVE_GEOMETRY_REPRESENTATION_RELATIONSHIP(
'supplemental geometry','',#34,#11);
#11=CONSTRUCTIVE_GEOMETRY_REPRESENTATION('supplemental geometry',(#175,
#176,#177),#309);
#12=GEOMETRICALLY_BOUNDED_WIREFRAME_SHAPE_REPRESENTATION(
'inpu64A0675Cmnh4-None',(#35),#309);
#13=PROPERTY_DEFINITION_REPRESENTATION(#17,#15);
#14=PROPERTY_DEFINITION_REPRESENTATION(#18,#16);
#15=REPRESENTATION('',(#19),#309);
#16=REPRESENTATION('',(#20),#309);
#17=PROPERTY_DEFINITION('pmi validation property','',#25);
#18=PROPERTY_DEFINITION('pmi validation property','',#25);
#19=VALUE_REPRESENTATION_ITEM('number of annotations',COUNT_MEASURE(0.));
#20=VALUE_REPRESENTATION_ITEM('number of views',COUNT_MEASURE(0.));
#21=SHAPE_REPRESENTATION_RELATIONSHIP('None',
'relationship between inpu64A0675Cmnh4-None and inpu64A0675Cmnh4-None',
#34,#23);
#22=SHAPE_REPRESENTATION_RELATIONSHIP('None',
'relationship between inpu64A0675Cmnh4-None and inpu64A0675Cmnh4-None',
#34,#12);
#23=ADVANCED_BREP_SHAPE_REPRESENTATION('inpu64A0675Cmnh4-None',(#47,#48),
#309);
#24=SHAPE_DEFINITION_REPRESENTATION(#25,#34);
#25=PRODUCT_DEFINITION_SHAPE('','',#26);
#26=PRODUCT_DEFINITION(' ','',#28,#27);
#27=PRODUCT_DEFINITION_CONTEXT('part definition',#33,'design');
#28=PRODUCT_DEFINITION_FORMATION_WITH_SPECIFIED_SOURCE(' ',' ',#30,
 .NOT_KNOWN.);
#29=PRODUCT_RELATED_PRODUCT_CATEGORY('part','',(#30));
#30=PRODUCT('inpu64A0675Cmnh4','inpu64A0675Cmnh4',' ',(#31));
#31=PRODUCT_CONTEXT(' ',#33,'mechanical');
#32=APPLICATION_PROTOCOL_DEFINITION('international standard',
'automotive_design',2010,#33);
#33=APPLICATION_CONTEXT(
'core data for automotive mechanical design processes');
#34=SHAPE_REPRESENTATION('inpu64A0675Cmnh4-None',(#174),#309);
#35=GEOMETRIC_CURVE_SET('None',(#238,#151));
#36=SPHERICAL_SURFACE('',#191,8.);
#37=SURFACE_STYLE_USAGE(.BOTH.,#39);
#38=SURFACE_STYLE_USAGE(.BOTH.,#40);
#39=SURFACE_SIDE_STYLE('',(#41));
#40=SURFACE_SIDE_STYLE('',(#42));
#41=SURFACE_STYLE_FILL_AREA(#43);
#42=SURFACE_STYLE_FILL_AREA(#44);
#43=FILL_AREA_STYLE('',(#45));
#44=FILL_AREA_STYLE('',(#46));
#45=FILL_AREA_STYLE_COLOUR('',#172);
#46=FILL_AREA_STYLE_COLOUR('',#173);
#47=MANIFOLD_SOLID_BREP('NOCUT',#49);
#48=MANIFOLD_SOLID_BREP('CUT',#50);
#49=CLOSED_SHELL('',(#62,#63,#64,#65,#66,#67,#68));
#50=CLOSED_SHELL('',(#69,#70,#71));
#51=TOROIDAL_SURFACE('',#187,12.6,5.);
#52=CYLINDRICAL_SURFACE('',#185,7.6);
#53=CYLINDRICAL_SURFACE('',#188,8.);
#54=(
BOUNDED_SURFACE()
B_SPLINE_SURFACE(3,3,((#265,#266,#267,#268,#269,#270,#271),(#272,#273,#274,
#275,#276,#277,#278),(#279,#280,#281,#282,#283,#284,#285),(#286,#287,#288,
#289,#290,#291,#292)),.UNSPECIFIED.,.F.,.T.,.F.)
B_SPLINE_SURFACE_WITH_KNOTS((4,4),(1,3,3,3,1),(0.,1.),(-0.5,0.,0.5,1.,1.5),
 .UNSPECIFIED.)
GEOMETRIC_REPRESENTATION_ITEM()
RATIONAL_B_SPLINE_SURFACE(((1.,0.333333333333333,0.333333333333333,1.,0.333333333333333,
0.333333333333333,1.),(0.983215636459033,0.327738545486344,0.327738545486344,
0.983215636459033,0.327738545486344,0.327738545486344,0.983215636459033),
(0.983215636459033,0.327738545486344,0.327738545486344,0.983215636459033,
0.327738545486344,0.327738545486344,0.983215636459033),(1.,0.333333333333333,
0.333333333333333,1.,0.333333333333333,0.333333333333333,1.)))
REPRESENTATION_ITEM('')
SURFACE()
);
#55=PLANE('',#181);
#56=PLANE('',#189);
#57=PLANE('',#194);
#58=FACE_OUTER_BOUND('',#88,.T.);
#59=FACE_OUTER_BOUND('',#97,.T.);
#60=FACE_OUTER_BOUND('',#98,.T.);
#61=FACE_OUTER_BOUND('',#101,.T.);
#62=ADVANCED_FACE('',(#74,#75),#72,.T.);
#63=ADVANCED_FACE('',(#58),#55,.T.);
#64=ADVANCED_FACE('',(#76,#77),#54,.T.);
#65=ADVANCED_FACE('',(#78,#79),#52,.T.);
#66=ADVANCED_FACE('',(#80,#81),#51,.F.);
#67=ADVANCED_FACE('',(#82,#83),#53,.T.);
#68=ADVANCED_FACE('',(#59),#56,.T.);
#69=ADVANCED_FACE('',(#60),#36,.T.);
#70=ADVANCED_FACE('',(#84,#85),#73,.T.);
#71=ADVANCED_FACE('',(#61),#57,.F.);
#72=CONICAL_SURFACE('',#180,8.,45.);
#73=CONICAL_SURFACE('',#193,8.,0.00500000000000834);
#74=FACE_BOUND('',#86,.T.);
#75=FACE_BOUND('',#87,.T.);
#76=FACE_BOUND('',#89,.T.);
#77=FACE_BOUND('',#90,.T.);
#78=FACE_BOUND('',#91,.T.);
#79=FACE_BOUND('',#92,.T.);
#80=FACE_BOUND('',#93,.T.);
#81=FACE_BOUND('',#94,.T.);
#82=FACE_BOUND('',#95,.T.);
#83=FACE_BOUND('',#96,.T.);
#84=FACE_BOUND('',#99,.T.);
#85=FACE_BOUND('',#100,.T.);
#86=EDGE_LOOP('',(#102));
#87=EDGE_LOOP('',(#103));
#88=EDGE_LOOP('',(#104));
#89=EDGE_LOOP('',(#105));
#90=EDGE_LOOP('',(#106));
#91=EDGE_LOOP('',(#107));
#92=EDGE_LOOP('',(#108));
#93=EDGE_LOOP('',(#109));
#94=EDGE_LOOP('',(#110));
#95=EDGE_LOOP('',(#111));
#96=EDGE_LOOP('',(#112));
#97=EDGE_LOOP('',(#113));
#98=EDGE_LOOP('',(#114));
#99=EDGE_LOOP('',(#115));
#100=EDGE_LOOP('',(#116));
#101=EDGE_LOOP('',(#117));
#102=ORIENTED_EDGE('',*,*,#126,.T.);
#103=ORIENTED_EDGE('',*,*,#127,.F.);
#104=ORIENTED_EDGE('',*,*,#126,.F.);
#105=ORIENTED_EDGE('',*,*,#128,.T.);
#106=ORIENTED_EDGE('',*,*,#129,.F.);
#107=ORIENTED_EDGE('',*,*,#130,.T.);
#108=ORIENTED_EDGE('',*,*,#128,.F.);
#109=ORIENTED_EDGE('',*,*,#131,.T.);
#110=ORIENTED_EDGE('',*,*,#130,.F.);
#111=ORIENTED_EDGE('',*,*,#127,.T.);
#112=ORIENTED_EDGE('',*,*,#131,.F.);
#113=ORIENTED_EDGE('',*,*,#129,.T.);
#114=ORIENTED_EDGE('',*,*,#132,.T.);
#115=ORIENTED_EDGE('',*,*,#133,.F.);
#116=ORIENTED_EDGE('',*,*,#132,.F.);
#117=ORIENTED_EDGE('',*,*,#133,.T.);
#118=VERTEX_POINT('',#256);
#119=VERTEX_POINT('',#258);
#120=VERTEX_POINT('',#262);
#121=VERTEX_POINT('',#264);
#122=VERTEX_POINT('',#294);
#123=VERTEX_POINT('',#297);
#124=VERTEX_POINT('',#302);
#125=VERTEX_POINT('',#305);
#126=EDGE_CURVE('',#118,#118,#134,.T.);
#127=EDGE_CURVE('',#119,#119,#135,.T.);
#128=EDGE_CURVE('',#120,#120,#136,.T.);
#129=EDGE_CURVE('',#121,#121,#137,.T.);
#130=EDGE_CURVE('',#122,#122,#138,.T.);
#131=EDGE_CURVE('',#123,#123,#139,.T.);
#132=EDGE_CURVE('',#124,#124,#140,.T.);
#133=EDGE_CURVE('',#125,#125,#141,.T.);
#134=CIRCLE('',#178,7.);
#135=CIRCLE('',#179,8.);
#136=CIRCLE('',#182,7.6);
#137=CIRCLE('',#183,7.99790560489229);
#138=CIRCLE('',#184,7.6);
#139=CIRCLE('',#186,8.);
#140=CIRCLE('',#190,8.);
#141=CIRCLE('',#192,7.99790560489229);
#142=CURVE_STYLE('',#147,POSITIVE_LENGTH_MEASURE(0.18),#146);
#143=CURVE_STYLE('',#148,POSITIVE_LENGTH_MEASURE(0.18),#171);
#144=CURVE_STYLE('',#149,POSITIVE_LENGTH_MEASURE(0.18),#171);
#145=CURVE_STYLE('',#150,POSITIVE_LENGTH_MEASURE(0.18),#171);
#146=DRAUGHTING_PRE_DEFINED_COLOUR('blue');
#147=DRAUGHTING_PRE_DEFINED_CURVE_FONT('continuous');
#148=DRAUGHTING_PRE_DEFINED_CURVE_FONT('continuous');
#149=DRAUGHTING_PRE_DEFINED_CURVE_FONT('continuous');
#150=DRAUGHTING_PRE_DEFINED_CURVE_FONT('continuous');
#151=TRIMMED_CURVE('CUTTING PART LINE',#152,(PARAMETER_VALUE(0.)),(
PARAMETER_VALUE(1.)),.T.,.PARAMETER.);
#152=(
BOUNDED_CURVE()
B_SPLINE_CURVE(3,(#239,#240,#241,#242,#243,#244,#245,#246,#247,#248,#249,
#250,#251),.UNSPECIFIED.,.T.,.F.)
B_SPLINE_CURVE_WITH_KNOTS((4,3,3,3,4),(0.,0.417949486914893,0.582077866622565,
0.895539983002176,1.),.UNSPECIFIED.)
CURVE()
GEOMETRIC_REPRESENTATION_ITEM()
RATIONAL_B_SPLINE_CURVE((1.,1.,1.,1.,0.804737854124365,0.804737854124365,
1.,1.,1.,1.,1.,1.,1.))
REPRESENTATION_ITEM('CUTTING PART LINE')
);
#153=PRESENTATION_LAYER_ASSIGNMENT('1','Layer 1',(#238,#151,#175,#176,#177,
#47,#48));
#154=STYLED_ITEM('',(#161),#238);
#155=STYLED_ITEM('',(#162),#151);
#156=STYLED_ITEM('',(#163),#175);
#157=STYLED_ITEM('',(#164),#176);
#158=STYLED_ITEM('',(#165),#177);
#159=STYLED_ITEM('',(#166),#47);
#160=STYLED_ITEM('',(#167),#48);
#161=PRESENTATION_STYLE_ASSIGNMENT((#168));
#162=PRESENTATION_STYLE_ASSIGNMENT((#142));
#163=PRESENTATION_STYLE_ASSIGNMENT((#143));
#164=PRESENTATION_STYLE_ASSIGNMENT((#144));
#165=PRESENTATION_STYLE_ASSIGNMENT((#145));
#166=PRESENTATION_STYLE_ASSIGNMENT((#37));
#167=PRESENTATION_STYLE_ASSIGNMENT((#38));
#168=POINT_STYLE('',#169,POSITIVE_LENGTH_MEASURE(3.),#170);
#169=PRE_DEFINED_POINT_MARKER_SYMBOL('plus');
#170=COLOUR_RGB('Medium Royal',0.2,0.4,0.8);
#171=COLOUR_RGB('Pale Maroon',0.811749446860456,0.603921568627451,0.611749446860456);
#172=COLOUR_RGB('Medium Gray',0.490196078431373,0.490196078431373,0.490196078431373);
#173=COLOUR_RGB('Light Gray',0.8,0.8,0.8);
#174=AXIS2_PLACEMENT_3D('',#237,#195,#196);
#175=AXIS2_PLACEMENT_3D('MCS',#252,#197,#198);
#176=AXIS2_PLACEMENT_3D('PCS',#253,#199,#200);
#177=AXIS2_PLACEMENT_3D('CIP',#254,#201,#202);
#178=AXIS2_PLACEMENT_3D('',#255,#203,#204);
#179=AXIS2_PLACEMENT_3D('',#257,#205,#206);
#180=AXIS2_PLACEMENT_3D('',#259,#207,#208);
#181=AXIS2_PLACEMENT_3D('',#260,#209,#210);
#182=AXIS2_PLACEMENT_3D('',#261,#211,#212);
#183=AXIS2_PLACEMENT_3D('',#263,#213,#214);
#184=AXIS2_PLACEMENT_3D('',#293,#215,#216);
#185=AXIS2_PLACEMENT_3D('',#295,#217,#218);
#186=AXIS2_PLACEMENT_3D('',#296,#219,#220);
#187=AXIS2_PLACEMENT_3D('',#298,#221,#222);
#188=AXIS2_PLACEMENT_3D('',#299,#223,#224);
#189=AXIS2_PLACEMENT_3D('',#300,#225,#226);
#190=AXIS2_PLACEMENT_3D('',#301,#227,#228);
#191=AXIS2_PLACEMENT_3D('',#303,#229,#230);
#192=AXIS2_PLACEMENT_3D('',#304,#231,#232);
#193=AXIS2_PLACEMENT_3D('',#306,#233,#234);
#194=AXIS2_PLACEMENT_3D('',#307,#235,#236);
#195=DIRECTION('',(0.,0.,1.));
#196=DIRECTION('',(1.,0.,0.));
#197=DIRECTION('',(0.,0.,1.));
#198=DIRECTION('',(1.,0.,0.));
#199=DIRECTION('',(0.,0.,1.));
#200=DIRECTION('',(1.,0.,0.));
#201=DIRECTION('',(0.,0.,1.));
#202=DIRECTION('',(1.,0.,0.));
#203=DIRECTION('',(0.,0.,-1.));
#204=DIRECTION('',(-1.,0.,0.));
#205=DIRECTION('',(0.,0.,-1.));
#206=DIRECTION('',(-1.,0.,0.));
#207=DIRECTION('',(0.,0.,-1.));
#208=DIRECTION('',(-1.,0.,1.10141173077893E-16));
#209=DIRECTION('',(0.,0.,1.));
#210=DIRECTION('',(1.,0.,0.));
#211=DIRECTION('',(0.,0.,-1.));
#212=DIRECTION('',(-1.,0.,0.));
#213=DIRECTION('',(0.,0.,-1.));
#214=DIRECTION('',(-1.,0.,0.));
#215=DIRECTION('',(0.,0.,-1.));
#216=DIRECTION('',(-1.,0.,0.));
#217=DIRECTION('',(0.,0.,-1.));
#218=DIRECTION('',(-1.,0.,0.));
#219=DIRECTION('',(0.,0.,-1.));
#220=DIRECTION('',(-1.,0.,0.));
#221=DIRECTION('',(0.,0.,-1.));
#222=DIRECTION('',(-1.,0.,0.));
#223=DIRECTION('',(0.,0.,-1.));
#224=DIRECTION('',(-1.,0.,0.));
#225=DIRECTION('',(0.,0.,-1.));
#226=DIRECTION('',(-1.,0.,0.));
#227=DIRECTION('',(0.,0.,-1.));
#228=DIRECTION('',(-1.,0.,0.));
#229=DIRECTION('',(6.12323399573677E-17,0.,-0.999999999999999));
#230=DIRECTION('',(1.,0.,0.));
#231=DIRECTION('',(0.,0.,1.));
#232=DIRECTION('',(-1.,0.,0.));
#233=DIRECTION('',(0.,0.,-1.));
#234=DIRECTION('',(-1.,0.,-1.02960286061649E-14));
#235=DIRECTION('',(0.,0.,-1.));
#236=DIRECTION('',(-1.,0.,0.));
#237=CARTESIAN_POINT('',(0.,0.,0.));
#238=CARTESIAN_POINT('CRP',(-8.,0.,-100.));
#239=CARTESIAN_POINT('',(0.,0.,-68.));
#240=CARTESIAN_POINT('',(0.,0.,-78.6666666666667));
#241=CARTESIAN_POINT('',(0.,0.,-89.3333333333333));
#242=CARTESIAN_POINT('',(2.44929359829472E-16,0.,-100.));
#243=CARTESIAN_POINT('',(-4.68629150101524,0.,-100.));
#244=CARTESIAN_POINT('',(-8.,0.,-96.6862915010153));
#245=CARTESIAN_POINT('',(-8.,0.,-92.));
#246=CARTESIAN_POINT('',(-7.99930186829743,0.,-84.));
#247=CARTESIAN_POINT('',(-7.99860373659486,0.,-76.));
#248=CARTESIAN_POINT('',(-7.99790560489229,0.,-68.));
#249=CARTESIAN_POINT('',(-5.33193706992819,0.,-68.));
#250=CARTESIAN_POINT('',(-2.6659685349641,0.,-68.));
#251=CARTESIAN_POINT('',(0.,0.,-68.));
#252=CARTESIAN_POINT('',(0.,0.,-48.));
#253=CARTESIAN_POINT('',(0.,0.,0.));
#254=CARTESIAN_POINT('',(0.,0.,-100.));
#255=CARTESIAN_POINT('',(0.,0.,0.));
#256=CARTESIAN_POINT('',(-7.,0.,0.));
#257=CARTESIAN_POINT('',(0.,0.,-1.));
#258=CARTESIAN_POINT('',(-8.,0.,-1.));
#259=CARTESIAN_POINT('',(0.,0.,-1.));
#260=CARTESIAN_POINT('',(7.,0.,1.11022302462516E-16));
#261=CARTESIAN_POINT('',(0.,0.,-66.2611204786713));
#262=CARTESIAN_POINT('',(-7.6,0.,-66.2611204786713));
#263=CARTESIAN_POINT('',(0.,0.,-68.));
#264=CARTESIAN_POINT('',(-7.99790560489229,0.,-68.));
#265=CARTESIAN_POINT('',(-7.99790560489229,0.,-68.));
#266=CARTESIAN_POINT('',(-7.99790560489229,15.9958112097846,-68.));
#267=CARTESIAN_POINT('',(7.99790560489229,15.9958112097846,-68.));
#268=CARTESIAN_POINT('',(7.99790560489229,0.,-68.));
#269=CARTESIAN_POINT('',(7.99790560489229,-15.9958112097846,-68.));
#270=CARTESIAN_POINT('',(-7.99790560489229,-15.9958112097846,-68.));
#271=CARTESIAN_POINT('',(-7.99790560489229,0.,-68.));
#272=CARTESIAN_POINT('',(-7.99785282973533,0.,-67.3952412502115));
#273=CARTESIAN_POINT('',(-7.99785282973533,15.9957056594707,-67.3952412502115));
#274=CARTESIAN_POINT('',(7.99785282973533,15.9957056594707,-67.3952412502115));
#275=CARTESIAN_POINT('',(7.99785282973533,0.,-67.3952412502115));
#276=CARTESIAN_POINT('',(7.99785282973533,-15.9957056594707,-67.3952412502115));
#277=CARTESIAN_POINT('',(-7.99785282973533,-15.9957056594707,-67.3952412502115));
#278=CARTESIAN_POINT('',(-7.99785282973533,0.,-67.3952412502115));
#279=CARTESIAN_POINT('',(-7.86295342749593,0.,-66.8057200041936));
#280=CARTESIAN_POINT('',(-7.86295342749593,15.7259068549919,-66.8057200041936));
#281=CARTESIAN_POINT('',(7.86295342749593,15.7259068549919,-66.8057200041936));
#282=CARTESIAN_POINT('',(7.86295342749593,0.,-66.8057200041936));
#283=CARTESIAN_POINT('',(7.86295342749593,-15.7259068549919,-66.8057200041936));
#284=CARTESIAN_POINT('',(-7.86295342749593,-15.7259068549919,-66.8057200041936));
#285=CARTESIAN_POINT('',(-7.86295342749593,0.,-66.8057200041936));
#286=CARTESIAN_POINT('',(-7.6,0.,-66.2611204786713));
#287=CARTESIAN_POINT('',(-7.6,15.2,-66.2611204786712));
#288=CARTESIAN_POINT('',(7.6,15.2,-66.2611204786712));
#289=CARTESIAN_POINT('',(7.6,0.,-66.2611204786713));
#290=CARTESIAN_POINT('',(7.6,-15.2,-66.2611204786712));
#291=CARTESIAN_POINT('',(-7.6,-15.2,-66.2611204786712));
#292=CARTESIAN_POINT('',(-7.6,0.,-66.2611204786713));
#293=CARTESIAN_POINT('',(0.,0.,-52.));
#294=CARTESIAN_POINT('',(-7.6,0.,-52.));
#295=CARTESIAN_POINT('',(0.,0.,-48.));
#296=CARTESIAN_POINT('',(0.,0.,-50.0404082057734));
#297=CARTESIAN_POINT('',(-8.,0.,-50.0404082057734));
#298=CARTESIAN_POINT('',(0.,0.,-52.));
#299=CARTESIAN_POINT('',(0.,0.,-48.));
#300=CARTESIAN_POINT('',(0.,0.,-68.));
#301=CARTESIAN_POINT('',(0.,0.,-92.));
#302=CARTESIAN_POINT('',(-8.,0.,-92.));
#303=CARTESIAN_POINT('',(0.,0.,-92.));
#304=CARTESIAN_POINT('',(0.,0.,-68.));
#305=CARTESIAN_POINT('',(-7.99790560489229,0.,-68.));
#306=CARTESIAN_POINT('',(0.,0.,-92.));
#307=CARTESIAN_POINT('',(0.,0.,-68.));
#308=MECHANICAL_DESIGN_GEOMETRIC_PRESENTATION_REPRESENTATION('',(#154,#155,
#156,#157,#158,#159,#160),#309);
#309=(
GEOMETRIC_REPRESENTATION_CONTEXT(3)
GLOBAL_UNCERTAINTY_ASSIGNED_CONTEXT((#310))
GLOBAL_UNIT_ASSIGNED_CONTEXT((#316,#312,#311))
REPRESENTATION_CONTEXT('S4321-160E2B','TOP_LEVEL_ASSEMBLY_PART')
);
#310=UNCERTAINTY_MEASURE_WITH_UNIT(LENGTH_MEASURE(0.0254),#316,
'DISTANCE_ACCURACY_VALUE','Maximum Tolerance applied to model');
#311=(
NAMED_UNIT(*)
SI_UNIT($,.STERADIAN.)
SOLID_ANGLE_UNIT()
);
#312=(
CONVERSION_BASED_UNIT('DEGREE',#314)
NAMED_UNIT(#313)
PLANE_ANGLE_UNIT()
);
#313=DIMENSIONAL_EXPONENTS(0.,0.,0.,0.,0.,0.,0.);
#314=PLANE_ANGLE_MEASURE_WITH_UNIT(PLANE_ANGLE_MEASURE(0.0174532925),#315);
#315=(
NAMED_UNIT(*)
PLANE_ANGLE_UNIT()
SI_UNIT($,.RADIAN.)
);
#316=(
LENGTH_UNIT()
NAMED_UNIT(*)
SI_UNIT(.MILLI.,.METRE.)
);
ENDSEC;
END-ISO-10303-21;
