ISO-10303-21;
HEADER;
/* Generated by software containing ST-Developer
 * from STEP Tools, Inc. (www.steptools.com) 
 */
/* OPTION: using custom schema-name function */

FILE_DESCRIPTION(
/* description */ (''),
/* implementation_level */ '2;1');

FILE_NAME(
/* name */ 'S4321-200E2B.3Z2_Basic.stp',
/* time_stamp */ '2024-05-17T16:51:41+05:00',
/* author */ (''),
/* organization */ (''),
/* preprocessor_version */ 'ST-DEVELOPER v16.7',
/* originating_system */ 'SIEMENS PLM Software NX 12.0',
/* authorisation */ '');

FILE_SCHEMA (('AUTOMOTIVE_DESIGN { 1 0 10303 214 3 1 1 1 }'));
ENDSEC;

DATA;
#10=CONSTRUCTIVE_GEOMETRY_REPRESENTATION_RELATIONSHIP(
'supplemental geometry','',#34,#11);
#11=CONSTRUCTIVE_GEOMETRY_REPRESENTATION('supplemental geometry',(#175,
#176,#177),#285);
#12=GEOMETRICALLY_BOUNDED_WIREFRAME_SHAPE_REPRESENTATION(
'inpu64A0675Cmnhm-None',(#35),#285);
#13=PROPERTY_DEFINITION_REPRESENTATION(#17,#15);
#14=PROPERTY_DEFINITION_REPRESENTATION(#18,#16);
#15=REPRESENTATION('',(#19),#285);
#16=REPRESENTATION('',(#20),#285);
#17=PROPERTY_DEFINITION('pmi validation property','',#25);
#18=PROPERTY_DEFINITION('pmi validation property','',#25);
#19=VALUE_REPRESENTATION_ITEM('number of annotations',COUNT_MEASURE(0.));
#20=VALUE_REPRESENTATION_ITEM('number of views',COUNT_MEASURE(0.));
#21=SHAPE_REPRESENTATION_RELATIONSHIP('None',
'relationship between inpu64A0675Cmnhm-None and inpu64A0675Cmnhm-None',
#34,#23);
#22=SHAPE_REPRESENTATION_RELATIONSHIP('None',
'relationship between inpu64A0675Cmnhm-None and inpu64A0675Cmnhm-None',
#34,#12);
#23=ADVANCED_BREP_SHAPE_REPRESENTATION('inpu64A0675Cmnhm-None',(#47,#48),
#285);
#24=SHAPE_DEFINITION_REPRESENTATION(#25,#34);
#25=PRODUCT_DEFINITION_SHAPE('','',#26);
#26=PRODUCT_DEFINITION(' ','',#28,#27);
#27=PRODUCT_DEFINITION_CONTEXT('part definition',#33,'design');
#28=PRODUCT_DEFINITION_FORMATION_WITH_SPECIFIED_SOURCE(' ',' ',#30,
 .NOT_KNOWN.);
#29=PRODUCT_RELATED_PRODUCT_CATEGORY('part','',(#30));
#30=PRODUCT('inpu64A0675Cmnhm','inpu64A0675Cmnhm',' ',(#31));
#31=PRODUCT_CONTEXT(' ',#33,'mechanical');
#32=APPLICATION_PROTOCOL_DEFINITION('international standard',
'automotive_design',2010,#33);
#33=APPLICATION_CONTEXT(
'core data for automotive mechanical design processes');
#34=SHAPE_REPRESENTATION('inpu64A0675Cmnhm-None',(#174),#285);
#35=GEOMETRIC_CURVE_SET('None',(#241,#151));
#36=SPHERICAL_SURFACE('',#192,10.);
#37=SURFACE_STYLE_USAGE(.BOTH.,#39);
#38=SURFACE_STYLE_USAGE(.BOTH.,#40);
#39=SURFACE_SIDE_STYLE('',(#41));
#40=SURFACE_SIDE_STYLE('',(#42));
#41=SURFACE_STYLE_FILL_AREA(#43);
#42=SURFACE_STYLE_FILL_AREA(#44);
#43=FILL_AREA_STYLE('',(#45));
#44=FILL_AREA_STYLE('',(#46));
#45=FILL_AREA_STYLE_COLOUR('',#172);
#46=FILL_AREA_STYLE_COLOUR('',#173);
#47=MANIFOLD_SOLID_BREP('NOCUT',#49);
#48=MANIFOLD_SOLID_BREP('CUT',#50);
#49=CLOSED_SHELL('',(#62,#63,#64,#65,#66,#67,#68));
#50=CLOSED_SHELL('',(#69,#70,#71));
#51=CYLINDRICAL_SURFACE('',#186,9.5);
#52=CYLINDRICAL_SURFACE('',#189,10.);
#53=TOROIDAL_SURFACE('',#184,5.99738202134624,4.);
#54=TOROIDAL_SURFACE('',#188,14.5,5.);
#55=PLANE('',#181);
#56=PLANE('',#190);
#57=PLANE('',#195);
#58=FACE_OUTER_BOUND('',#88,.T.);
#59=FACE_OUTER_BOUND('',#97,.T.);
#60=FACE_OUTER_BOUND('',#98,.T.);
#61=FACE_OUTER_BOUND('',#101,.T.);
#62=ADVANCED_FACE('',(#74,#75),#72,.T.);
#63=ADVANCED_FACE('',(#58),#55,.T.);
#64=ADVANCED_FACE('',(#76,#77),#53,.T.);
#65=ADVANCED_FACE('',(#78,#79),#51,.T.);
#66=ADVANCED_FACE('',(#80,#81),#54,.F.);
#67=ADVANCED_FACE('',(#82,#83),#52,.T.);
#68=ADVANCED_FACE('',(#59),#56,.T.);
#69=ADVANCED_FACE('',(#60),#36,.T.);
#70=ADVANCED_FACE('',(#84,#85),#73,.T.);
#71=ADVANCED_FACE('',(#61),#57,.F.);
#72=CONICAL_SURFACE('',#180,10.,44.9999999999999);
#73=CONICAL_SURFACE('',#194,10.,0.00500000000000089);
#74=FACE_BOUND('',#86,.T.);
#75=FACE_BOUND('',#87,.T.);
#76=FACE_BOUND('',#89,.T.);
#77=FACE_BOUND('',#90,.T.);
#78=FACE_BOUND('',#91,.T.);
#79=FACE_BOUND('',#92,.T.);
#80=FACE_BOUND('',#93,.T.);
#81=FACE_BOUND('',#94,.T.);
#82=FACE_BOUND('',#95,.T.);
#83=FACE_BOUND('',#96,.T.);
#84=FACE_BOUND('',#99,.T.);
#85=FACE_BOUND('',#100,.T.);
#86=EDGE_LOOP('',(#102));
#87=EDGE_LOOP('',(#103));
#88=EDGE_LOOP('',(#104));
#89=EDGE_LOOP('',(#105));
#90=EDGE_LOOP('',(#106));
#91=EDGE_LOOP('',(#107));
#92=EDGE_LOOP('',(#108));
#93=EDGE_LOOP('',(#109));
#94=EDGE_LOOP('',(#110));
#95=EDGE_LOOP('',(#111));
#96=EDGE_LOOP('',(#112));
#97=EDGE_LOOP('',(#113));
#98=EDGE_LOOP('',(#114));
#99=EDGE_LOOP('',(#115));
#100=EDGE_LOOP('',(#116));
#101=EDGE_LOOP('',(#117));
#102=ORIENTED_EDGE('',*,*,#126,.T.);
#103=ORIENTED_EDGE('',*,*,#127,.F.);
#104=ORIENTED_EDGE('',*,*,#126,.F.);
#105=ORIENTED_EDGE('',*,*,#128,.T.);
#106=ORIENTED_EDGE('',*,*,#129,.F.);
#107=ORIENTED_EDGE('',*,*,#130,.T.);
#108=ORIENTED_EDGE('',*,*,#128,.F.);
#109=ORIENTED_EDGE('',*,*,#131,.T.);
#110=ORIENTED_EDGE('',*,*,#130,.F.);
#111=ORIENTED_EDGE('',*,*,#127,.T.);
#112=ORIENTED_EDGE('',*,*,#131,.F.);
#113=ORIENTED_EDGE('',*,*,#129,.T.);
#114=ORIENTED_EDGE('',*,*,#132,.T.);
#115=ORIENTED_EDGE('',*,*,#133,.F.);
#116=ORIENTED_EDGE('',*,*,#132,.F.);
#117=ORIENTED_EDGE('',*,*,#133,.T.);
#118=VERTEX_POINT('',#259);
#119=VERTEX_POINT('',#261);
#120=VERTEX_POINT('',#265);
#121=VERTEX_POINT('',#267);
#122=VERTEX_POINT('',#270);
#123=VERTEX_POINT('',#273);
#124=VERTEX_POINT('',#278);
#125=VERTEX_POINT('',#281);
#126=EDGE_CURVE('',#118,#118,#134,.T.);
#127=EDGE_CURVE('',#119,#119,#135,.T.);
#128=EDGE_CURVE('',#120,#120,#136,.T.);
#129=EDGE_CURVE('',#121,#121,#137,.T.);
#130=EDGE_CURVE('',#122,#122,#138,.T.);
#131=EDGE_CURVE('',#123,#123,#139,.T.);
#132=EDGE_CURVE('',#124,#124,#140,.T.);
#133=EDGE_CURVE('',#125,#125,#141,.T.);
#134=CIRCLE('',#178,8.5);
#135=CIRCLE('',#179,10.);
#136=CIRCLE('',#182,9.5);
#137=CIRCLE('',#183,9.99738200611537);
#138=CIRCLE('',#185,9.5);
#139=CIRCLE('',#187,10.);
#140=CIRCLE('',#191,10.);
#141=CIRCLE('',#193,9.99738200611537);
#142=CURVE_STYLE('',#147,POSITIVE_LENGTH_MEASURE(0.18),#146);
#143=CURVE_STYLE('',#148,POSITIVE_LENGTH_MEASURE(0.18),#171);
#144=CURVE_STYLE('',#149,POSITIVE_LENGTH_MEASURE(0.18),#171);
#145=CURVE_STYLE('',#150,POSITIVE_LENGTH_MEASURE(0.18),#171);
#146=DRAUGHTING_PRE_DEFINED_COLOUR('blue');
#147=DRAUGHTING_PRE_DEFINED_CURVE_FONT('continuous');
#148=DRAUGHTING_PRE_DEFINED_CURVE_FONT('continuous');
#149=DRAUGHTING_PRE_DEFINED_CURVE_FONT('continuous');
#150=DRAUGHTING_PRE_DEFINED_CURVE_FONT('continuous');
#151=TRIMMED_CURVE('CUTTING PART LINE',#152,(PARAMETER_VALUE(0.)),(
PARAMETER_VALUE(1.)),.T.,.PARAMETER.);
#152=(
BOUNDED_CURVE()
B_SPLINE_CURVE(3,(#242,#243,#244,#245,#246,#247,#248,#249,#250,#251,#252,
#253,#254),.UNSPECIFIED.,.T.,.F.)
B_SPLINE_CURVE_WITH_KNOTS((4,3,3,3,4),(0.,0.417949486914172,0.582077866621719,
0.895539983001377,1.),.UNSPECIFIED.)
CURVE()
GEOMETRIC_REPRESENTATION_ITEM()
RATIONAL_B_SPLINE_CURVE((1.,1.,1.,1.,0.804737854124365,0.804737854124365,
1.,1.,1.,1.,1.,1.,1.))
REPRESENTATION_ITEM('CUTTING PART LINE')
);
#153=PRESENTATION_LAYER_ASSIGNMENT('1','Layer 1',(#241,#151,#175,#176,#177,
#47,#48));
#154=STYLED_ITEM('',(#161),#241);
#155=STYLED_ITEM('',(#162),#151);
#156=STYLED_ITEM('',(#163),#175);
#157=STYLED_ITEM('',(#164),#176);
#158=STYLED_ITEM('',(#165),#177);
#159=STYLED_ITEM('',(#166),#47);
#160=STYLED_ITEM('',(#167),#48);
#161=PRESENTATION_STYLE_ASSIGNMENT((#168));
#162=PRESENTATION_STYLE_ASSIGNMENT((#142));
#163=PRESENTATION_STYLE_ASSIGNMENT((#143));
#164=PRESENTATION_STYLE_ASSIGNMENT((#144));
#165=PRESENTATION_STYLE_ASSIGNMENT((#145));
#166=PRESENTATION_STYLE_ASSIGNMENT((#37));
#167=PRESENTATION_STYLE_ASSIGNMENT((#38));
#168=POINT_STYLE('',#169,POSITIVE_LENGTH_MEASURE(3.),#170);
#169=PRE_DEFINED_POINT_MARKER_SYMBOL('plus');
#170=COLOUR_RGB('Medium Royal',0.2,0.4,0.8);
#171=COLOUR_RGB('Pale Maroon',0.811749446860456,0.603921568627451,0.611749446860456);
#172=COLOUR_RGB('Medium Gray',0.490196078431373,0.490196078431373,0.490196078431373);
#173=COLOUR_RGB('Light Gray',0.8,0.8,0.8);
#174=AXIS2_PLACEMENT_3D('',#240,#196,#197);
#175=AXIS2_PLACEMENT_3D('MCS',#255,#198,#199);
#176=AXIS2_PLACEMENT_3D('PCS',#256,#200,#201);
#177=AXIS2_PLACEMENT_3D('CIP',#257,#202,#203);
#178=AXIS2_PLACEMENT_3D('',#258,#204,#205);
#179=AXIS2_PLACEMENT_3D('',#260,#206,#207);
#180=AXIS2_PLACEMENT_3D('',#262,#208,#209);
#181=AXIS2_PLACEMENT_3D('',#263,#210,#211);
#182=AXIS2_PLACEMENT_3D('',#264,#212,#213);
#183=AXIS2_PLACEMENT_3D('',#266,#214,#215);
#184=AXIS2_PLACEMENT_3D('',#268,#216,#217);
#185=AXIS2_PLACEMENT_3D('',#269,#218,#219);
#186=AXIS2_PLACEMENT_3D('',#271,#220,#221);
#187=AXIS2_PLACEMENT_3D('',#272,#222,#223);
#188=AXIS2_PLACEMENT_3D('',#274,#224,#225);
#189=AXIS2_PLACEMENT_3D('',#275,#226,#227);
#190=AXIS2_PLACEMENT_3D('',#276,#228,#229);
#191=AXIS2_PLACEMENT_3D('',#277,#230,#231);
#192=AXIS2_PLACEMENT_3D('',#279,#232,#233);
#193=AXIS2_PLACEMENT_3D('',#280,#234,#235);
#194=AXIS2_PLACEMENT_3D('',#282,#236,#237);
#195=AXIS2_PLACEMENT_3D('',#283,#238,#239);
#196=DIRECTION('',(0.,0.,1.));
#197=DIRECTION('',(1.,0.,0.));
#198=DIRECTION('',(0.,0.,1.));
#199=DIRECTION('',(1.,0.,0.));
#200=DIRECTION('',(0.,0.,1.));
#201=DIRECTION('',(1.,0.,0.));
#202=DIRECTION('',(0.,0.,1.));
#203=DIRECTION('',(1.,0.,0.));
#204=DIRECTION('',(0.,0.,-1.));
#205=DIRECTION('',(-1.,0.,0.));
#206=DIRECTION('',(0.,0.,-1.));
#207=DIRECTION('',(-1.,0.,0.));
#208=DIRECTION('',(0.,0.,-1.));
#209=DIRECTION('',(-1.,0.,-5.49615358725326E-17));
#210=DIRECTION('',(0.,0.,1.));
#211=DIRECTION('',(1.,0.,0.));
#212=DIRECTION('',(0.,0.,-1.));
#213=DIRECTION('',(-1.,0.,0.));
#214=DIRECTION('',(0.,0.,-1.));
#215=DIRECTION('',(-1.,0.,0.));
#216=DIRECTION('',(0.,0.,-1.));
#217=DIRECTION('',(-1.,0.,0.));
#218=DIRECTION('',(0.,0.,-1.));
#219=DIRECTION('',(-1.,0.,0.));
#220=DIRECTION('',(0.,0.,-1.));
#221=DIRECTION('',(-1.,0.,0.));
#222=DIRECTION('',(0.,0.,-1.));
#223=DIRECTION('',(-1.,0.,0.));
#224=DIRECTION('',(0.,0.,-1.));
#225=DIRECTION('',(-1.,0.,0.));
#226=DIRECTION('',(0.,0.,-1.));
#227=DIRECTION('',(-1.,0.,0.));
#228=DIRECTION('',(0.,0.,-1.));
#229=DIRECTION('',(-1.,0.,0.));
#230=DIRECTION('',(0.,0.,-1.));
#231=DIRECTION('',(-1.,0.,0.));
#232=DIRECTION('',(6.12323399573677E-17,0.,-0.999999999999999));
#233=DIRECTION('',(1.,0.,0.));
#234=DIRECTION('',(0.,0.,1.));
#235=DIRECTION('',(-1.,0.,0.));
#236=DIRECTION('',(0.,0.,-1.));
#237=DIRECTION('',(-1.,0.,-8.25463738405085E-15));
#238=DIRECTION('',(0.,0.,-1.));
#239=DIRECTION('',(-1.,0.,0.));
#240=CARTESIAN_POINT('',(0.,0.,0.));
#241=CARTESIAN_POINT('CRP',(-10.,0.,-114.));
#242=CARTESIAN_POINT('',(0.,0.,-74.));
#243=CARTESIAN_POINT('',(0.,0.,-87.3333333333333));
#244=CARTESIAN_POINT('',(0.,0.,-100.666666666667));
#245=CARTESIAN_POINT('',(3.0616169978684E-16,0.,-114.));
#246=CARTESIAN_POINT('',(-5.85786437626905,0.,-114.));
#247=CARTESIAN_POINT('',(-10.,0.,-109.857864376269));
#248=CARTESIAN_POINT('',(-10.,0.,-104.));
#249=CARTESIAN_POINT('',(-9.99912733537179,0.,-94.));
#250=CARTESIAN_POINT('',(-9.99825467074357,0.,-84.));
#251=CARTESIAN_POINT('',(-9.99738200611536,0.,-74.));
#252=CARTESIAN_POINT('',(-6.66492133741024,0.,-74.));
#253=CARTESIAN_POINT('',(-3.33246066870512,0.,-74.));
#254=CARTESIAN_POINT('',(0.,0.,-74.));
#255=CARTESIAN_POINT('',(0.,0.,-50.));
#256=CARTESIAN_POINT('',(0.,0.,0.));
#257=CARTESIAN_POINT('',(0.,0.,-114.));
#258=CARTESIAN_POINT('',(0.,0.,0.));
#259=CARTESIAN_POINT('',(-8.5,0.,0.));
#260=CARTESIAN_POINT('',(0.,0.,-1.5));
#261=CARTESIAN_POINT('',(-10.,0.,-1.5));
#262=CARTESIAN_POINT('',(0.,0.,-1.5));
#263=CARTESIAN_POINT('',(8.5,0.,4.37866521560423E-17));
#264=CARTESIAN_POINT('',(0.,0.,-72.0685966760206));
#265=CARTESIAN_POINT('',(-9.5,0.,-72.0685966760206));
#266=CARTESIAN_POINT('',(0.,0.,-74.));
#267=CARTESIAN_POINT('',(-9.99738200611537,0.,-74.));
#268=CARTESIAN_POINT('',(0.,0.,-74.00034906585));
#269=CARTESIAN_POINT('',(0.,0.,-54.));
#270=CARTESIAN_POINT('',(-9.5,0.,-54.));
#271=CARTESIAN_POINT('',(0.,0.,-50.));
#272=CARTESIAN_POINT('',(0.,0.,-51.8205505282296));
#273=CARTESIAN_POINT('',(-10.,0.,-51.8205505282296));
#274=CARTESIAN_POINT('',(0.,0.,-54.));
#275=CARTESIAN_POINT('',(0.,0.,-50.));
#276=CARTESIAN_POINT('',(0.,0.,-74.));
#277=CARTESIAN_POINT('',(0.,0.,-104.));
#278=CARTESIAN_POINT('',(-10.,0.,-104.));
#279=CARTESIAN_POINT('',(0.,0.,-104.));
#280=CARTESIAN_POINT('',(0.,0.,-74.));
#281=CARTESIAN_POINT('',(-9.99738200611537,0.,-74.));
#282=CARTESIAN_POINT('',(0.,0.,-104.));
#283=CARTESIAN_POINT('',(0.,0.,-74.));
#284=MECHANICAL_DESIGN_GEOMETRIC_PRESENTATION_REPRESENTATION('',(#154,#155,
#156,#157,#158,#159,#160),#285);
#285=(
GEOMETRIC_REPRESENTATION_CONTEXT(3)
GLOBAL_UNCERTAINTY_ASSIGNED_CONTEXT((#286))
GLOBAL_UNIT_ASSIGNED_CONTEXT((#292,#288,#287))
REPRESENTATION_CONTEXT('S4321-200E2B','TOP_LEVEL_ASSEMBLY_PART')
);
#286=UNCERTAINTY_MEASURE_WITH_UNIT(LENGTH_MEASURE(2.E-5),#292,
'DISTANCE_ACCURACY_VALUE','Maximum Tolerance applied to model');
#287=(
NAMED_UNIT(*)
SI_UNIT($,.STERADIAN.)
SOLID_ANGLE_UNIT()
);
#288=(
CONVERSION_BASED_UNIT('DEGREE',#290)
NAMED_UNIT(#289)
PLANE_ANGLE_UNIT()
);
#289=DIMENSIONAL_EXPONENTS(0.,0.,0.,0.,0.,0.,0.);
#290=PLANE_ANGLE_MEASURE_WITH_UNIT(PLANE_ANGLE_MEASURE(0.0174532925),#291);
#291=(
NAMED_UNIT(*)
PLANE_ANGLE_UNIT()
SI_UNIT($,.RADIAN.)
);
#292=(
LENGTH_UNIT()
NAMED_UNIT(*)
SI_UNIT(.MILLI.,.METRE.)
);
ENDSEC;
END-ISO-10303-21;
