ISO-10303-21;
HEADER;
/* Generated by software containing ST-Developer
 * from STEP Tools, Inc. (www.steptools.com) 
 */
/* OPTION: using custom schema-name function */

FILE_DESCRIPTION(
/* description */ (''),
/* implementation_level */ '2;1');

FILE_NAME(
/* name */ 'S4521-050G2C.0Z2_Basic.stp',
/* time_stamp */ '2024-05-20T13:56:32+05:00',
/* author */ (''),
/* organization */ (''),
/* preprocessor_version */ 'ST-DEVELOPER v16.7',
/* originating_system */ 'SIEMENS PLM Software NX 12.0',
/* authorisation */ '');

FILE_SCHEMA (('AUTOMOTIVE_DESIGN { 1 0 10303 214 3 1 1 1 }'));
ENDSEC;

DATA;
#10=CONSTRUCTIVE_GEOMETRY_REPRESENTATION_RELATIONSHIP(
'supplemental geometry','',#34,#11);
#11=CONSTRUCTIVE_GEOMETRY_REPRESENTATION('supplemental geometry',(#185,
#186,#187),#331);
#12=GEOMETRICALLY_BOUNDED_WIREFRAME_SHAPE_REPRESENTATION(
'inpu5ADC2A24rzlp-None',(#35),#331);
#13=PROPERTY_DEFINITION_REPRESENTATION(#17,#15);
#14=PROPERTY_DEFINITION_REPRESENTATION(#18,#16);
#15=REPRESENTATION('',(#19),#331);
#16=REPRESENTATION('',(#20),#331);
#17=PROPERTY_DEFINITION('pmi validation property','',#25);
#18=PROPERTY_DEFINITION('pmi validation property','',#25);
#19=VALUE_REPRESENTATION_ITEM('number of annotations',COUNT_MEASURE(0.));
#20=VALUE_REPRESENTATION_ITEM('number of views',COUNT_MEASURE(0.));
#21=SHAPE_REPRESENTATION_RELATIONSHIP('None',
'relationship between inpu5ADC2A24rzlp-None and inpu5ADC2A24rzlp-None',
#34,#23);
#22=SHAPE_REPRESENTATION_RELATIONSHIP('None',
'relationship between inpu5ADC2A24rzlp-None and inpu5ADC2A24rzlp-None',
#34,#12);
#23=ADVANCED_BREP_SHAPE_REPRESENTATION('inpu5ADC2A24rzlp-None',(#46,#47),
#331);
#24=SHAPE_DEFINITION_REPRESENTATION(#25,#34);
#25=PRODUCT_DEFINITION_SHAPE('','',#26);
#26=PRODUCT_DEFINITION(' ','',#28,#27);
#27=PRODUCT_DEFINITION_CONTEXT('part definition',#33,'design');
#28=PRODUCT_DEFINITION_FORMATION_WITH_SPECIFIED_SOURCE(' ',' ',#30,
 .NOT_KNOWN.);
#29=PRODUCT_RELATED_PRODUCT_CATEGORY('part','',(#30));
#30=PRODUCT('inpu5ADC2A24rzlp','inpu5ADC2A24rzlp',' ',(#31));
#31=PRODUCT_CONTEXT(' ',#33,'mechanical');
#32=APPLICATION_PROTOCOL_DEFINITION('international standard',
'automotive_design',2010,#33);
#33=APPLICATION_CONTEXT(
'core data for automotive mechanical design processes');
#34=SHAPE_REPRESENTATION('inpu5ADC2A24rzlp-None',(#184),#331);
#35=GEOMETRIC_CURVE_SET('None',(#254,#162));
#36=SURFACE_STYLE_USAGE(.BOTH.,#38);
#37=SURFACE_STYLE_USAGE(.BOTH.,#39);
#38=SURFACE_SIDE_STYLE('',(#40));
#39=SURFACE_SIDE_STYLE('',(#41));
#40=SURFACE_STYLE_FILL_AREA(#42);
#41=SURFACE_STYLE_FILL_AREA(#43);
#42=FILL_AREA_STYLE('',(#44));
#43=FILL_AREA_STYLE('',(#45));
#44=FILL_AREA_STYLE_COLOUR('',#182);
#45=FILL_AREA_STYLE_COLOUR('',#183);
#46=MANIFOLD_SOLID_BREP('NOCUT',#48);
#47=MANIFOLD_SOLID_BREP('CUT',#49);
#48=CLOSED_SHELL('',(#62,#63,#64,#65,#66,#67,#68));
#49=CLOSED_SHELL('',(#69,#70,#71,#72));
#50=TOROIDAL_SURFACE('',#197,7.375,5.);
#51=CYLINDRICAL_SURFACE('',#195,2.375);
#52=CYLINDRICAL_SURFACE('',#198,3.);
#53=(
BOUNDED_SURFACE()
B_SPLINE_SURFACE(3,3,((#284,#285,#286,#287,#288,#289,#290),(#291,#292,#293,
#294,#295,#296,#297),(#298,#299,#300,#301,#302,#303,#304),(#305,#306,#307,
#308,#309,#310,#311)),.UNSPECIFIED.,.F.,.T.,.F.)
B_SPLINE_SURFACE_WITH_KNOTS((4,4),(1,3,3,3,1),(0.,1.),(-0.5,0.,0.5,1.,1.5),
 .UNSPECIFIED.)
GEOMETRIC_REPRESENTATION_ITEM()
RATIONAL_B_SPLINE_SURFACE(((1.,0.333333333333333,0.333333333333333,1.,0.333333333333333,
0.333333333333333,1.),(0.98957892206865,0.32985964068955,0.32985964068955,
0.98957892206865,0.32985964068955,0.32985964068955,0.98957892206865),(0.98957892206865,
0.32985964068955,0.32985964068955,0.98957892206865,0.32985964068955,0.32985964068955,
0.98957892206865),(1.,0.333333333333333,0.333333333333333,1.,0.333333333333333,
0.333333333333333,1.)))
REPRESENTATION_ITEM('')
SURFACE()
);
#54=PLANE('',#191);
#55=PLANE('',#199);
#56=PLANE('',#201);
#57=PLANE('',#206);
#58=FACE_OUTER_BOUND('',#92,.T.);
#59=FACE_OUTER_BOUND('',#101,.T.);
#60=FACE_OUTER_BOUND('',#102,.T.);
#61=FACE_OUTER_BOUND('',#107,.T.);
#62=ADVANCED_FACE('',(#76,#77),#73,.T.);
#63=ADVANCED_FACE('',(#58),#54,.T.);
#64=ADVANCED_FACE('',(#78,#79),#53,.T.);
#65=ADVANCED_FACE('',(#80,#81),#51,.T.);
#66=ADVANCED_FACE('',(#82,#83),#50,.F.);
#67=ADVANCED_FACE('',(#84,#85),#52,.T.);
#68=ADVANCED_FACE('',(#59),#55,.T.);
#69=ADVANCED_FACE('',(#60),#56,.T.);
#70=ADVANCED_FACE('',(#86,#87),#74,.T.);
#71=ADVANCED_FACE('',(#88,#89),#75,.T.);
#72=ADVANCED_FACE('',(#61),#57,.F.);
#73=CONICAL_SURFACE('',#190,3.,45.);
#74=CONICAL_SURFACE('',#203,2.4,45.);
#75=CONICAL_SURFACE('',#205,2.5,0.00500000000000219);
#76=FACE_BOUND('',#90,.T.);
#77=FACE_BOUND('',#91,.T.);
#78=FACE_BOUND('',#93,.T.);
#79=FACE_BOUND('',#94,.T.);
#80=FACE_BOUND('',#95,.T.);
#81=FACE_BOUND('',#96,.T.);
#82=FACE_BOUND('',#97,.T.);
#83=FACE_BOUND('',#98,.T.);
#84=FACE_BOUND('',#99,.T.);
#85=FACE_BOUND('',#100,.T.);
#86=FACE_BOUND('',#103,.T.);
#87=FACE_BOUND('',#104,.T.);
#88=FACE_BOUND('',#105,.T.);
#89=FACE_BOUND('',#106,.T.);
#90=EDGE_LOOP('',(#108));
#91=EDGE_LOOP('',(#109));
#92=EDGE_LOOP('',(#110));
#93=EDGE_LOOP('',(#111));
#94=EDGE_LOOP('',(#112));
#95=EDGE_LOOP('',(#113));
#96=EDGE_LOOP('',(#114));
#97=EDGE_LOOP('',(#115));
#98=EDGE_LOOP('',(#116));
#99=EDGE_LOOP('',(#117));
#100=EDGE_LOOP('',(#118));
#101=EDGE_LOOP('',(#119));
#102=EDGE_LOOP('',(#120));
#103=EDGE_LOOP('',(#121));
#104=EDGE_LOOP('',(#122));
#105=EDGE_LOOP('',(#123));
#106=EDGE_LOOP('',(#124));
#107=EDGE_LOOP('',(#125));
#108=ORIENTED_EDGE('',*,*,#135,.T.);
#109=ORIENTED_EDGE('',*,*,#136,.F.);
#110=ORIENTED_EDGE('',*,*,#135,.F.);
#111=ORIENTED_EDGE('',*,*,#137,.T.);
#112=ORIENTED_EDGE('',*,*,#138,.F.);
#113=ORIENTED_EDGE('',*,*,#139,.T.);
#114=ORIENTED_EDGE('',*,*,#137,.F.);
#115=ORIENTED_EDGE('',*,*,#140,.T.);
#116=ORIENTED_EDGE('',*,*,#139,.F.);
#117=ORIENTED_EDGE('',*,*,#136,.T.);
#118=ORIENTED_EDGE('',*,*,#140,.F.);
#119=ORIENTED_EDGE('',*,*,#138,.T.);
#120=ORIENTED_EDGE('',*,*,#141,.T.);
#121=ORIENTED_EDGE('',*,*,#142,.T.);
#122=ORIENTED_EDGE('',*,*,#141,.F.);
#123=ORIENTED_EDGE('',*,*,#143,.F.);
#124=ORIENTED_EDGE('',*,*,#142,.F.);
#125=ORIENTED_EDGE('',*,*,#143,.T.);
#126=VERTEX_POINT('',#275);
#127=VERTEX_POINT('',#277);
#128=VERTEX_POINT('',#281);
#129=VERTEX_POINT('',#283);
#130=VERTEX_POINT('',#313);
#131=VERTEX_POINT('',#316);
#132=VERTEX_POINT('',#321);
#133=VERTEX_POINT('',#324);
#134=VERTEX_POINT('',#327);
#135=EDGE_CURVE('',#126,#126,#144,.T.);
#136=EDGE_CURVE('',#127,#127,#145,.T.);
#137=EDGE_CURVE('',#128,#128,#146,.T.);
#138=EDGE_CURVE('',#129,#129,#147,.T.);
#139=EDGE_CURVE('',#130,#130,#148,.T.);
#140=EDGE_CURVE('',#131,#131,#149,.T.);
#141=EDGE_CURVE('',#132,#132,#150,.T.);
#142=EDGE_CURVE('',#133,#133,#151,.T.);
#143=EDGE_CURVE('',#134,#134,#152,.T.);
#144=CIRCLE('',#188,2.5);
#145=CIRCLE('',#189,3.);
#146=CIRCLE('',#192,2.37499999999999);
#147=CIRCLE('',#193,2.49913606201807);
#148=CIRCLE('',#194,2.375);
#149=CIRCLE('',#196,3.);
#150=CIRCLE('',#200,2.4);
#151=CIRCLE('',#202,2.5);
#152=CIRCLE('',#204,2.49913606201807);
#153=CURVE_STYLE('',#158,POSITIVE_LENGTH_MEASURE(0.18),#157);
#154=CURVE_STYLE('',#159,POSITIVE_LENGTH_MEASURE(0.18),#181);
#155=CURVE_STYLE('',#160,POSITIVE_LENGTH_MEASURE(0.18),#181);
#156=CURVE_STYLE('',#161,POSITIVE_LENGTH_MEASURE(0.18),#181);
#157=DRAUGHTING_PRE_DEFINED_COLOUR('blue');
#158=DRAUGHTING_PRE_DEFINED_CURVE_FONT('continuous');
#159=DRAUGHTING_PRE_DEFINED_CURVE_FONT('continuous');
#160=DRAUGHTING_PRE_DEFINED_CURVE_FONT('continuous');
#161=DRAUGHTING_PRE_DEFINED_CURVE_FONT('continuous');
#162=B_SPLINE_CURVE_WITH_KNOTS('CUTTING PART LINE',3,(#255,#256,#257,#258,
#259,#260,#261,#262,#263,#264,#265,#266,#267,#268,#269,#270),
 .UNSPECIFIED.,.T.,.F.,(4,3,3,3,3,4),(0.,0.400953628068109,0.497182148905215,
0.502852489490742,0.899796582789726,1.),.UNSPECIFIED.);
#163=PRESENTATION_LAYER_ASSIGNMENT('1','Layer 1',(#254,#162,#185,#186,#187,
#46,#47));
#164=STYLED_ITEM('',(#171),#254);
#165=STYLED_ITEM('',(#172),#162);
#166=STYLED_ITEM('',(#173),#185);
#167=STYLED_ITEM('',(#174),#186);
#168=STYLED_ITEM('',(#175),#187);
#169=STYLED_ITEM('',(#176),#46);
#170=STYLED_ITEM('',(#177),#47);
#171=PRESENTATION_STYLE_ASSIGNMENT((#178));
#172=PRESENTATION_STYLE_ASSIGNMENT((#153));
#173=PRESENTATION_STYLE_ASSIGNMENT((#154));
#174=PRESENTATION_STYLE_ASSIGNMENT((#155));
#175=PRESENTATION_STYLE_ASSIGNMENT((#156));
#176=PRESENTATION_STYLE_ASSIGNMENT((#36));
#177=PRESENTATION_STYLE_ASSIGNMENT((#37));
#178=POINT_STYLE('',#179,POSITIVE_LENGTH_MEASURE(3.),#180);
#179=PRE_DEFINED_POINT_MARKER_SYMBOL('plus');
#180=COLOUR_RGB('Medium Royal',0.2,0.4,0.8);
#181=COLOUR_RGB('Pale Maroon',0.811749446860456,0.603921568627451,0.611749446860456);
#182=COLOUR_RGB('Medium Gray',0.490196078431373,0.490196078431373,0.490196078431373);
#183=COLOUR_RGB('Light Gray',0.8,0.8,0.8);
#184=AXIS2_PLACEMENT_3D('',#253,#207,#208);
#185=AXIS2_PLACEMENT_3D('MCS',#271,#209,#210);
#186=AXIS2_PLACEMENT_3D('CIP',#272,#211,#212);
#187=AXIS2_PLACEMENT_3D('PCS',#273,#213,#214);
#188=AXIS2_PLACEMENT_3D('',#274,#215,#216);
#189=AXIS2_PLACEMENT_3D('',#276,#217,#218);
#190=AXIS2_PLACEMENT_3D('',#278,#219,#220);
#191=AXIS2_PLACEMENT_3D('',#279,#221,#222);
#192=AXIS2_PLACEMENT_3D('',#280,#223,#224);
#193=AXIS2_PLACEMENT_3D('',#282,#225,#226);
#194=AXIS2_PLACEMENT_3D('',#312,#227,#228);
#195=AXIS2_PLACEMENT_3D('',#314,#229,#230);
#196=AXIS2_PLACEMENT_3D('',#315,#231,#232);
#197=AXIS2_PLACEMENT_3D('',#317,#233,#234);
#198=AXIS2_PLACEMENT_3D('',#318,#235,#236);
#199=AXIS2_PLACEMENT_3D('',#319,#237,#238);
#200=AXIS2_PLACEMENT_3D('',#320,#239,#240);
#201=AXIS2_PLACEMENT_3D('',#322,#241,#242);
#202=AXIS2_PLACEMENT_3D('',#323,#243,#244);
#203=AXIS2_PLACEMENT_3D('',#325,#245,#246);
#204=AXIS2_PLACEMENT_3D('',#326,#247,#248);
#205=AXIS2_PLACEMENT_3D('',#328,#249,#250);
#206=AXIS2_PLACEMENT_3D('',#329,#251,#252);
#207=DIRECTION('',(0.,0.,1.));
#208=DIRECTION('',(1.,0.,0.));
#209=DIRECTION('',(0.,0.,1.));
#210=DIRECTION('',(1.,0.,0.));
#211=DIRECTION('',(0.,0.,1.));
#212=DIRECTION('',(1.,0.,0.));
#213=DIRECTION('',(0.,0.,1.));
#214=DIRECTION('',(1.,0.,0.));
#215=DIRECTION('',(0.,0.,-1.));
#216=DIRECTION('',(-1.,0.,0.));
#217=DIRECTION('',(0.,0.,-1.));
#218=DIRECTION('',(-1.,0.,0.));
#219=DIRECTION('',(0.,0.,-1.));
#220=DIRECTION('',(-1.,0.,5.53451158836071E-17));
#221=DIRECTION('',(0.,0.,1.));
#222=DIRECTION('',(1.,0.,0.));
#223=DIRECTION('',(0.,0.,-1.));
#224=DIRECTION('',(-1.,0.,0.));
#225=DIRECTION('',(0.,0.,-1.));
#226=DIRECTION('',(-1.,0.,0.));
#227=DIRECTION('',(0.,0.,-1.));
#228=DIRECTION('',(-1.,0.,0.));
#229=DIRECTION('',(0.,0.,-1.));
#230=DIRECTION('',(-1.,0.,0.));
#231=DIRECTION('',(0.,0.,-1.));
#232=DIRECTION('',(-1.,0.,0.));
#233=DIRECTION('',(0.,0.,-1.));
#234=DIRECTION('',(-1.,0.,0.));
#235=DIRECTION('',(0.,0.,-1.));
#236=DIRECTION('',(-1.,0.,0.));
#237=DIRECTION('',(0.,0.,-1.));
#238=DIRECTION('',(-1.,0.,0.));
#239=DIRECTION('',(0.,0.,-1.));
#240=DIRECTION('',(-1.,0.,0.));
#241=DIRECTION('',(0.,0.,-1.));
#242=DIRECTION('',(-1.,0.,0.));
#243=DIRECTION('',(0.,0.,-1.));
#244=DIRECTION('',(-1.,0.,0.));
#245=DIRECTION('',(0.,0.,1.));
#246=DIRECTION('',(1.,0.,-4.84559630161119E-17));
#247=DIRECTION('',(0.,0.,1.));
#248=DIRECTION('',(-1.,0.,0.));
#249=DIRECTION('',(0.,0.,-1.));
#250=DIRECTION('',(-1.,0.,1.87735813165471E-14));
#251=DIRECTION('',(0.,0.,-1.));
#252=DIRECTION('',(-1.,0.,0.));
#253=CARTESIAN_POINT('',(0.,0.,0.));
#254=CARTESIAN_POINT('CRP',(-2.5,0.,-57.));
#255=CARTESIAN_POINT('',(0.,0.,-47.));
#256=CARTESIAN_POINT('',(0.,0.,-50.3333333333333));
#257=CARTESIAN_POINT('',(0.,0.,-53.6666666666667));
#258=CARTESIAN_POINT('',(0.,0.,-57.));
#259=CARTESIAN_POINT('',(-0.799997091117906,0.,-57.));
#260=CARTESIAN_POINT('',(-1.59999418223581,0.,-57.));
#261=CARTESIAN_POINT('',(-2.39999127335372,0.,-57.));
#262=CARTESIAN_POINT('',(-2.43332460668705,0.,-56.9666666666667));
#263=CARTESIAN_POINT('',(-2.46665794002038,0.,-56.9333333333333));
#264=CARTESIAN_POINT('',(-2.49999127335372,0.,-56.9));
#265=CARTESIAN_POINT('',(-2.49970329402641,0.,-53.6));
#266=CARTESIAN_POINT('',(-2.4994153146991,0.,-50.3));
#267=CARTESIAN_POINT('',(-2.49912733537179,0.,-47.));
#268=CARTESIAN_POINT('',(-1.66608489024786,0.,-47.));
#269=CARTESIAN_POINT('',(-0.83304244512393,0.,-47.));
#270=CARTESIAN_POINT('',(0.,0.,-47.));
#271=CARTESIAN_POINT('',(0.,0.,-36.));
#272=CARTESIAN_POINT('',(0.,0.,-57.));
#273=CARTESIAN_POINT('',(0.,0.,0.));
#274=CARTESIAN_POINT('',(0.,0.,0.));
#275=CARTESIAN_POINT('',(-2.5,0.,0.));
#276=CARTESIAN_POINT('',(0.,0.,-0.5));
#277=CARTESIAN_POINT('',(-3.,0.,-0.5));
#278=CARTESIAN_POINT('',(0.,0.,-0.5));
#279=CARTESIAN_POINT('',(2.5,0.,9.43337462333193E-17));
#280=CARTESIAN_POINT('',(0.,0.,-46.306535927634));
#281=CARTESIAN_POINT('',(-2.37499999999999,0.,-46.306535927634));
#282=CARTESIAN_POINT('',(0.,0.,-47.));
#283=CARTESIAN_POINT('',(-2.49913606201807,0.,-47.));
#284=CARTESIAN_POINT('',(-2.49913606201807,0.,-47.));
#285=CARTESIAN_POINT('',(-2.49913606201807,4.99827212403614,-47.));
#286=CARTESIAN_POINT('',(2.49913606201807,4.99827212403614,-47.));
#287=CARTESIAN_POINT('',(2.49913606201807,0.,-47.));
#288=CARTESIAN_POINT('',(2.49913606201807,-4.99827212403614,-47.));
#289=CARTESIAN_POINT('',(-2.49913606201807,-4.99827212403614,-47.));
#290=CARTESIAN_POINT('',(-2.49913606201807,0.,-47.));
#291=CARTESIAN_POINT('',(-2.49911535351187,0.,-46.7626979994906));
#292=CARTESIAN_POINT('',(-2.49911535351187,4.99823070702373,-46.7626979994906));
#293=CARTESIAN_POINT('',(2.49911535351187,4.99823070702373,-46.7626979994906));
#294=CARTESIAN_POINT('',(2.49911535351187,0.,-46.7626979994906));
#295=CARTESIAN_POINT('',(2.49911535351187,-4.99823070702373,-46.7626979994906));
#296=CARTESIAN_POINT('',(-2.49911535351187,-4.99823070702373,-46.7626979994906));
#297=CARTESIAN_POINT('',(-2.49911535351187,0.,-46.7626979994906));
#298=CARTESIAN_POINT('',(-2.45730091464643,0.,-46.5291090601612));
#299=CARTESIAN_POINT('',(-2.45730091464643,4.91460182929287,-46.5291090601612));
#300=CARTESIAN_POINT('',(2.45730091464643,4.91460182929287,-46.5291090601612));
#301=CARTESIAN_POINT('',(2.45730091464643,0.,-46.5291090601612));
#302=CARTESIAN_POINT('',(2.45730091464643,-4.91460182929287,-46.5291090601612));
#303=CARTESIAN_POINT('',(-2.45730091464643,-4.91460182929287,-46.5291090601612));
#304=CARTESIAN_POINT('',(-2.45730091464643,0.,-46.5291090601612));
#305=CARTESIAN_POINT('',(-2.37499999999999,0.,-46.306535927634));
#306=CARTESIAN_POINT('',(-2.37499999999999,4.74999999999999,-46.306535927634));
#307=CARTESIAN_POINT('',(2.37499999999999,4.74999999999999,-46.306535927634));
#308=CARTESIAN_POINT('',(2.37499999999999,0.,-46.306535927634));
#309=CARTESIAN_POINT('',(2.37499999999999,-4.74999999999999,-46.306535927634));
#310=CARTESIAN_POINT('',(-2.37499999999999,-4.74999999999999,-46.306535927634));
#311=CARTESIAN_POINT('',(-2.37499999999999,0.,-46.306535927634));
#312=CARTESIAN_POINT('',(0.,0.,-40.));
#313=CARTESIAN_POINT('',(-2.375,0.,-40.));
#314=CARTESIAN_POINT('',(0.,0.,-36.));
#315=CARTESIAN_POINT('',(0.,0.,-37.5793854086204));
#316=CARTESIAN_POINT('',(-3.,0.,-37.5793854086204));
#317=CARTESIAN_POINT('',(0.,0.,-40.));
#318=CARTESIAN_POINT('',(0.,0.,-36.));
#319=CARTESIAN_POINT('',(0.,0.,-47.));
#320=CARTESIAN_POINT('',(0.,0.,-57.));
#321=CARTESIAN_POINT('',(-2.4,0.,-57.));
#322=CARTESIAN_POINT('',(-3.10862446895044E-15,0.,-57.));
#323=CARTESIAN_POINT('',(0.,0.,-56.9));
#324=CARTESIAN_POINT('',(-2.5,0.,-56.9));
#325=CARTESIAN_POINT('',(0.,0.,-57.));
#326=CARTESIAN_POINT('',(0.,0.,-47.));
#327=CARTESIAN_POINT('',(-2.49913606201807,0.,-47.));
#328=CARTESIAN_POINT('',(0.,0.,-56.9));
#329=CARTESIAN_POINT('',(0.,0.,-47.));
#330=MECHANICAL_DESIGN_GEOMETRIC_PRESENTATION_REPRESENTATION('',(#164,#165,
#166,#167,#168,#169,#170),#331);
#331=(
GEOMETRIC_REPRESENTATION_CONTEXT(3)
GLOBAL_UNCERTAINTY_ASSIGNED_CONTEXT((#332))
GLOBAL_UNIT_ASSIGNED_CONTEXT((#338,#334,#333))
REPRESENTATION_CONTEXT('S4521-050G2C','TOP_LEVEL_ASSEMBLY_PART')
);
#332=UNCERTAINTY_MEASURE_WITH_UNIT(LENGTH_MEASURE(0.0254),#338,
'DISTANCE_ACCURACY_VALUE','Maximum Tolerance applied to model');
#333=(
NAMED_UNIT(*)
SI_UNIT($,.STERADIAN.)
SOLID_ANGLE_UNIT()
);
#334=(
CONVERSION_BASED_UNIT('DEGREE',#336)
NAMED_UNIT(#335)
PLANE_ANGLE_UNIT()
);
#335=DIMENSIONAL_EXPONENTS(0.,0.,0.,0.,0.,0.,0.);
#336=PLANE_ANGLE_MEASURE_WITH_UNIT(PLANE_ANGLE_MEASURE(0.0174532925),#337);
#337=(
NAMED_UNIT(*)
PLANE_ANGLE_UNIT()
SI_UNIT($,.RADIAN.)
);
#338=(
LENGTH_UNIT()
NAMED_UNIT(*)
SI_UNIT(.MILLI.,.METRE.)
);
ENDSEC;
END-ISO-10303-21;
