ISO-10303-21;
HEADER;
/* Generated by software containing ST-Developer
 * from STEP Tools, Inc. (www.steptools.com) 
 */
/* OPTION: using custom schema-name function */

FILE_DESCRIPTION(
/* description */ (''),
/* implementation_level */ '2;1');

FILE_NAME(
/* name */ 'S4521-080E3R020.0Z2_Basic.stp',
/* time_stamp */ '2024-05-06T10:20:50+06:00',
/* author */ (''),
/* organization */ (''),
/* preprocessor_version */ 'ST-DEVELOPER v16.7',
/* originating_system */ 'SIEMENS PLM Software NX 12.0',
/* authorisation */ '');

FILE_SCHEMA (('AUTOMOTIVE_DESIGN { 1 0 10303 214 3 1 1 1 }'));
ENDSEC;

DATA;
#10=CONSTRUCTIVE_GEOMETRY_REPRESENTATION_RELATIONSHIP(
'supplemental geometry','',#34,#11);
#11=CONSTRUCTIVE_GEOMETRY_REPRESENTATION('supplemental geometry',(#185,
#186,#187),#372);
#12=GEOMETRICALLY_BOUNDED_WIREFRAME_SHAPE_REPRESENTATION(
'inpu56E41CD11sae-None',(#35),#372);
#13=PROPERTY_DEFINITION_REPRESENTATION(#17,#15);
#14=PROPERTY_DEFINITION_REPRESENTATION(#18,#16);
#15=REPRESENTATION('',(#19),#372);
#16=REPRESENTATION('',(#20),#372);
#17=PROPERTY_DEFINITION('pmi validation property','',#25);
#18=PROPERTY_DEFINITION('pmi validation property','',#25);
#19=VALUE_REPRESENTATION_ITEM('number of annotations',COUNT_MEASURE(0.));
#20=VALUE_REPRESENTATION_ITEM('number of views',COUNT_MEASURE(0.));
#21=SHAPE_REPRESENTATION_RELATIONSHIP('None',
'relationship between inpu56E41CD11sae-None and inpu56E41CD11sae-None',
#34,#23);
#22=SHAPE_REPRESENTATION_RELATIONSHIP('None',
'relationship between inpu56E41CD11sae-None and inpu56E41CD11sae-None',
#34,#12);
#23=ADVANCED_BREP_SHAPE_REPRESENTATION('inpu56E41CD11sae-None',(#46,#47),
#372);
#24=SHAPE_DEFINITION_REPRESENTATION(#25,#34);
#25=PRODUCT_DEFINITION_SHAPE('','',#26);
#26=PRODUCT_DEFINITION(' ','',#28,#27);
#27=PRODUCT_DEFINITION_CONTEXT('part definition',#33,'design');
#28=PRODUCT_DEFINITION_FORMATION_WITH_SPECIFIED_SOURCE(' ',' ',#30,
 .NOT_KNOWN.);
#29=PRODUCT_RELATED_PRODUCT_CATEGORY('part','',(#30));
#30=PRODUCT('inpu56E41CD11sae','inpu56E41CD11sae',' ',(#31));
#31=PRODUCT_CONTEXT(' ',#33,'mechanical');
#32=APPLICATION_PROTOCOL_DEFINITION('international standard',
'automotive_design',2010,#33);
#33=APPLICATION_CONTEXT(
'core data for automotive mechanical design processes');
#34=SHAPE_REPRESENTATION('inpu56E41CD11sae-None',(#184),#372);
#35=GEOMETRIC_CURVE_SET('None',(#251,#162));
#36=SURFACE_STYLE_USAGE(.BOTH.,#38);
#37=SURFACE_STYLE_USAGE(.BOTH.,#39);
#38=SURFACE_SIDE_STYLE('',(#40));
#39=SURFACE_SIDE_STYLE('',(#41));
#40=SURFACE_STYLE_FILL_AREA(#42);
#41=SURFACE_STYLE_FILL_AREA(#43);
#42=FILL_AREA_STYLE('',(#44));
#43=FILL_AREA_STYLE('',(#45));
#44=FILL_AREA_STYLE_COLOUR('',#182);
#45=FILL_AREA_STYLE_COLOUR('',#183);
#46=MANIFOLD_SOLID_BREP('NOCUT',#48);
#47=MANIFOLD_SOLID_BREP('CUT',#49);
#48=CLOSED_SHELL('',(#63,#64,#65,#66,#67,#68,#69));
#49=CLOSED_SHELL('',(#70,#71,#72,#73));
#50=TOROIDAL_SURFACE('',#197,8.8,5.);
#51=CYLINDRICAL_SURFACE('',#195,3.8);
#52=CYLINDRICAL_SURFACE('',#198,4.);
#53=(
BOUNDED_SURFACE()
B_SPLINE_SURFACE(3,3,((#298,#299,#300,#301,#302,#303,#304),(#305,#306,#307,
#308,#309,#310,#311),(#312,#313,#314,#315,#316,#317,#318),(#319,#320,#321,
#322,#323,#324,#325)),.UNSPECIFIED.,.F.,.T.,.F.)
B_SPLINE_SURFACE_WITH_KNOTS((4,4),(1,3,3,3,1),(0.,1.),(-0.5,0.,0.5,1.,1.5),
 .UNSPECIFIED.)
GEOMETRIC_REPRESENTATION_ITEM()
RATIONAL_B_SPLINE_SURFACE(((1.,0.333333333333333,0.333333333333333,1.,0.333333333333333,
0.333333333333333,1.),(0.983200718287202,0.327733572762401,0.327733572762401,
0.983200718287202,0.327733572762401,0.327733572762401,0.983200718287202),
(0.983200718287202,0.327733572762401,0.327733572762401,0.983200718287202,
0.327733572762401,0.327733572762401,0.983200718287202),(1.,0.333333333333333,
0.333333333333333,1.,0.333333333333333,0.333333333333333,1.)))
REPRESENTATION_ITEM('')
SURFACE()
);
#54=(
BOUNDED_SURFACE()
B_SPLINE_SURFACE(3,3,((#339,#340,#341,#342,#343,#344,#345),(#346,#347,#348,
#349,#350,#351,#352),(#353,#354,#355,#356,#357,#358,#359),(#360,#361,#362,
#363,#364,#365,#366)),.UNSPECIFIED.,.F.,.T.,.F.)
B_SPLINE_SURFACE_WITH_KNOTS((4,4),(1,3,3,3,1),(0.,1.),(-0.5,0.,0.5,1.,1.5),
 .UNSPECIFIED.)
GEOMETRIC_REPRESENTATION_ITEM()
RATIONAL_B_SPLINE_SURFACE(((1.,0.333333333333333,0.333333333333333,1.,0.333333333333333,
0.333333333333333,1.),(0.804717284773139,0.268239094924379,0.268239094924379,
0.804717284773139,0.268239094924379,0.268239094924379,0.804717284773139),
(0.804717284773139,0.268239094924379,0.268239094924379,0.804717284773139,
0.268239094924379,0.268239094924379,0.804717284773139),(1.,0.333333333333333,
0.333333333333333,1.,0.333333333333333,0.333333333333333,1.)))
REPRESENTATION_ITEM('')
SURFACE()
);
#55=PLANE('',#191);
#56=PLANE('',#199);
#57=PLANE('',#201);
#58=PLANE('',#205);
#59=FACE_OUTER_BOUND('',#92,.T.);
#60=FACE_OUTER_BOUND('',#101,.T.);
#61=FACE_OUTER_BOUND('',#102,.T.);
#62=FACE_OUTER_BOUND('',#107,.T.);
#63=ADVANCED_FACE('',(#76,#77),#74,.T.);
#64=ADVANCED_FACE('',(#59),#55,.T.);
#65=ADVANCED_FACE('',(#78,#79),#53,.T.);
#66=ADVANCED_FACE('',(#80,#81),#51,.T.);
#67=ADVANCED_FACE('',(#82,#83),#50,.F.);
#68=ADVANCED_FACE('',(#84,#85),#52,.T.);
#69=ADVANCED_FACE('',(#60),#56,.T.);
#70=ADVANCED_FACE('',(#61),#57,.T.);
#71=ADVANCED_FACE('',(#86,#87),#54,.T.);
#72=ADVANCED_FACE('',(#88,#89),#75,.T.);
#73=ADVANCED_FACE('',(#62),#58,.F.);
#74=CONICAL_SURFACE('',#190,4.,44.9999999999999);
#75=CONICAL_SURFACE('',#204,3.99999999238458,0.00500000000008398);
#76=FACE_BOUND('',#90,.T.);
#77=FACE_BOUND('',#91,.T.);
#78=FACE_BOUND('',#93,.T.);
#79=FACE_BOUND('',#94,.T.);
#80=FACE_BOUND('',#95,.T.);
#81=FACE_BOUND('',#96,.T.);
#82=FACE_BOUND('',#97,.T.);
#83=FACE_BOUND('',#98,.T.);
#84=FACE_BOUND('',#99,.T.);
#85=FACE_BOUND('',#100,.T.);
#86=FACE_BOUND('',#103,.T.);
#87=FACE_BOUND('',#104,.T.);
#88=FACE_BOUND('',#105,.T.);
#89=FACE_BOUND('',#106,.T.);
#90=EDGE_LOOP('',(#108));
#91=EDGE_LOOP('',(#109));
#92=EDGE_LOOP('',(#110));
#93=EDGE_LOOP('',(#111));
#94=EDGE_LOOP('',(#112));
#95=EDGE_LOOP('',(#113));
#96=EDGE_LOOP('',(#114));
#97=EDGE_LOOP('',(#115));
#98=EDGE_LOOP('',(#116));
#99=EDGE_LOOP('',(#117));
#100=EDGE_LOOP('',(#118));
#101=EDGE_LOOP('',(#119));
#102=EDGE_LOOP('',(#120));
#103=EDGE_LOOP('',(#121));
#104=EDGE_LOOP('',(#122));
#105=EDGE_LOOP('',(#123));
#106=EDGE_LOOP('',(#124));
#107=EDGE_LOOP('',(#125));
#108=ORIENTED_EDGE('',*,*,#135,.T.);
#109=ORIENTED_EDGE('',*,*,#136,.F.);
#110=ORIENTED_EDGE('',*,*,#135,.F.);
#111=ORIENTED_EDGE('',*,*,#137,.T.);
#112=ORIENTED_EDGE('',*,*,#138,.F.);
#113=ORIENTED_EDGE('',*,*,#139,.T.);
#114=ORIENTED_EDGE('',*,*,#137,.F.);
#115=ORIENTED_EDGE('',*,*,#140,.T.);
#116=ORIENTED_EDGE('',*,*,#139,.F.);
#117=ORIENTED_EDGE('',*,*,#136,.T.);
#118=ORIENTED_EDGE('',*,*,#140,.F.);
#119=ORIENTED_EDGE('',*,*,#138,.T.);
#120=ORIENTED_EDGE('',*,*,#141,.T.);
#121=ORIENTED_EDGE('',*,*,#142,.T.);
#122=ORIENTED_EDGE('',*,*,#141,.F.);
#123=ORIENTED_EDGE('',*,*,#143,.F.);
#124=ORIENTED_EDGE('',*,*,#142,.F.);
#125=ORIENTED_EDGE('',*,*,#143,.T.);
#126=VERTEX_POINT('',#289);
#127=VERTEX_POINT('',#291);
#128=VERTEX_POINT('',#295);
#129=VERTEX_POINT('',#297);
#130=VERTEX_POINT('',#327);
#131=VERTEX_POINT('',#330);
#132=VERTEX_POINT('',#335);
#133=VERTEX_POINT('',#338);
#134=VERTEX_POINT('',#368);
#135=EDGE_CURVE('',#126,#126,#144,.T.);
#136=EDGE_CURVE('',#127,#127,#145,.T.);
#137=EDGE_CURVE('',#128,#128,#146,.T.);
#138=EDGE_CURVE('',#129,#129,#147,.T.);
#139=EDGE_CURVE('',#130,#130,#148,.T.);
#140=EDGE_CURVE('',#131,#131,#149,.T.);
#141=EDGE_CURVE('',#132,#132,#150,.T.);
#142=EDGE_CURVE('',#133,#133,#151,.T.);
#143=EDGE_CURVE('',#134,#134,#152,.T.);
#144=CIRCLE('',#188,3.29999999999999);
#145=CIRCLE('',#189,4.);
#146=CIRCLE('',#192,3.8);
#147=CIRCLE('',#193,3.99912734298722);
#148=CIRCLE('',#194,3.79999999999999);
#149=CIRCLE('',#196,4.);
#150=CIRCLE('',#200,2.);
#151=CIRCLE('',#202,3.99999999238458);
#152=CIRCLE('',#203,3.99912734298723);
#153=CURVE_STYLE('',#158,POSITIVE_LENGTH_MEASURE(0.18),#157);
#154=CURVE_STYLE('',#159,POSITIVE_LENGTH_MEASURE(0.18),#181);
#155=CURVE_STYLE('',#160,POSITIVE_LENGTH_MEASURE(0.18),#181);
#156=CURVE_STYLE('',#161,POSITIVE_LENGTH_MEASURE(0.18),#181);
#157=DRAUGHTING_PRE_DEFINED_COLOUR('blue');
#158=DRAUGHTING_PRE_DEFINED_CURVE_FONT('continuous');
#159=DRAUGHTING_PRE_DEFINED_CURVE_FONT('continuous');
#160=DRAUGHTING_PRE_DEFINED_CURVE_FONT('continuous');
#161=DRAUGHTING_PRE_DEFINED_CURVE_FONT('continuous');
#162=B_SPLINE_CURVE_WITH_KNOTS('CUTTING PART LINE',3,(#252,#253,#254,#255,
#256,#257,#258,#259,#260,#261,#262,#263,#264,#265,#266,#267,#268,#269,#270,
#271,#272,#273,#274,#275,#276,#277,#278,#279,#280,#281,#282,#283,#284),
 .UNSPECIFIED.,.T.,.F.,(4,3,1,1,1,1,1,1,1,1,1,1,1,1,1,1,1,1,1,1,1,1,1,1,
1,3,4),(0.,0.3853475445,0.41745983985,0.4479665204325,0.4495721352,0.452724927571875,
0.45587771994375,0.4621833046875,0.46848888943125,0.474794474175,0.48110005891875,
0.4874056436625,0.49371122840625,0.50001681315,0.50632239789375,0.5126279826375,
0.51893356738125,0.525239152125,0.53154473686875,0.5378503216125,0.54415590635625,
0.547308698728125,0.5504614911,0.55246847454,0.7110201663,0.8715788415,
1.),.UNSPECIFIED.);
#163=PRESENTATION_LAYER_ASSIGNMENT('1','Layer 1',(#251,#162,#185,#186,#187,
#46,#47));
#164=STYLED_ITEM('',(#171),#251);
#165=STYLED_ITEM('',(#172),#162);
#166=STYLED_ITEM('',(#173),#185);
#167=STYLED_ITEM('',(#174),#186);
#168=STYLED_ITEM('',(#175),#187);
#169=STYLED_ITEM('',(#176),#46);
#170=STYLED_ITEM('',(#177),#47);
#171=PRESENTATION_STYLE_ASSIGNMENT((#178));
#172=PRESENTATION_STYLE_ASSIGNMENT((#153));
#173=PRESENTATION_STYLE_ASSIGNMENT((#154));
#174=PRESENTATION_STYLE_ASSIGNMENT((#155));
#175=PRESENTATION_STYLE_ASSIGNMENT((#156));
#176=PRESENTATION_STYLE_ASSIGNMENT((#36));
#177=PRESENTATION_STYLE_ASSIGNMENT((#37));
#178=POINT_STYLE('',#179,POSITIVE_LENGTH_MEASURE(3.),#180);
#179=PRE_DEFINED_POINT_MARKER_SYMBOL('plus');
#180=COLOUR_RGB('Medium Royal',0.2,0.4,0.8);
#181=COLOUR_RGB('Pale Maroon',0.811749446860456,0.603921568627451,0.611749446860456);
#182=COLOUR_RGB('Medium Gray',0.490196078431373,0.490196078431373,0.490196078431373);
#183=COLOUR_RGB('Light Gray',0.8,0.8,0.8);
#184=AXIS2_PLACEMENT_3D('',#250,#206,#207);
#185=AXIS2_PLACEMENT_3D('MCS',#285,#208,#209);
#186=AXIS2_PLACEMENT_3D('CIP',#286,#210,#211);
#187=AXIS2_PLACEMENT_3D('PCS',#287,#212,#213);
#188=AXIS2_PLACEMENT_3D('',#288,#214,#215);
#189=AXIS2_PLACEMENT_3D('',#290,#216,#217);
#190=AXIS2_PLACEMENT_3D('',#292,#218,#219);
#191=AXIS2_PLACEMENT_3D('',#293,#220,#221);
#192=AXIS2_PLACEMENT_3D('',#294,#222,#223);
#193=AXIS2_PLACEMENT_3D('',#296,#224,#225);
#194=AXIS2_PLACEMENT_3D('',#326,#226,#227);
#195=AXIS2_PLACEMENT_3D('',#328,#228,#229);
#196=AXIS2_PLACEMENT_3D('',#329,#230,#231);
#197=AXIS2_PLACEMENT_3D('',#331,#232,#233);
#198=AXIS2_PLACEMENT_3D('',#332,#234,#235);
#199=AXIS2_PLACEMENT_3D('',#333,#236,#237);
#200=AXIS2_PLACEMENT_3D('',#334,#238,#239);
#201=AXIS2_PLACEMENT_3D('',#336,#240,#241);
#202=AXIS2_PLACEMENT_3D('',#337,#242,#243);
#203=AXIS2_PLACEMENT_3D('',#367,#244,#245);
#204=AXIS2_PLACEMENT_3D('',#369,#246,#247);
#205=AXIS2_PLACEMENT_3D('',#370,#248,#249);
#206=DIRECTION('',(0.,0.,1.));
#207=DIRECTION('',(1.,0.,0.));
#208=DIRECTION('',(0.,0.,1.));
#209=DIRECTION('',(1.,0.,0.));
#210=DIRECTION('',(0.,0.,1.));
#211=DIRECTION('',(1.,0.,0.));
#212=DIRECTION('',(0.,0.,1.));
#213=DIRECTION('',(1.,0.,0.));
#214=DIRECTION('',(0.,0.,-1.));
#215=DIRECTION('',(-1.,0.,0.));
#216=DIRECTION('',(0.,0.,-1.));
#217=DIRECTION('',(-1.,0.,0.));
#218=DIRECTION('',(0.,0.,-1.));
#219=DIRECTION('',(-1.,0.,8.29349868992899E-17));
#220=DIRECTION('',(0.,0.,1.));
#221=DIRECTION('',(1.,0.,0.));
#222=DIRECTION('',(0.,0.,-1.));
#223=DIRECTION('',(-1.,0.,0.));
#224=DIRECTION('',(0.,0.,-1.));
#225=DIRECTION('',(-1.,0.,0.));
#226=DIRECTION('',(0.,0.,-1.));
#227=DIRECTION('',(-1.,0.,0.));
#228=DIRECTION('',(0.,0.,-1.));
#229=DIRECTION('',(-1.,0.,0.));
#230=DIRECTION('',(0.,0.,-1.));
#231=DIRECTION('',(-1.,0.,0.));
#232=DIRECTION('',(0.,0.,-1.));
#233=DIRECTION('',(-1.,0.,0.));
#234=DIRECTION('',(0.,0.,-1.));
#235=DIRECTION('',(-1.,0.,0.));
#236=DIRECTION('',(0.,0.,-1.));
#237=DIRECTION('',(-1.,0.,0.));
#238=DIRECTION('',(0.,0.,-1.));
#239=DIRECTION('',(-1.,0.,0.));
#240=DIRECTION('',(0.,0.,-1.));
#241=DIRECTION('',(-1.,0.,0.));
#242=DIRECTION('',(0.,0.,-1.));
#243=DIRECTION('',(-1.,0.,0.));
#244=DIRECTION('',(0.,0.,1.));
#245=DIRECTION('',(-1.,0.,0.));
#246=DIRECTION('',(0.,0.,-1.));
#247=DIRECTION('',(-1.,0.,1.6976857222183E-14));
#248=DIRECTION('',(0.,0.,-1.));
#249=DIRECTION('',(-1.,0.,0.));
#250=CARTESIAN_POINT('',(0.,0.,0.));
#251=CARTESIAN_POINT('CRP',(-4.,0.,-79.));
#252=CARTESIAN_POINT('',(0.,0.,-67.));
#253=CARTESIAN_POINT('',(0.,0.,-71.));
#254=CARTESIAN_POINT('',(0.,0.,-75.));
#255=CARTESIAN_POINT('',(0.,0.,-79.));
#256=CARTESIAN_POINT('',(-0.333333333333333,0.,-79.));
#257=CARTESIAN_POINT('',(-0.983333333333333,0.,-79.));
#258=CARTESIAN_POINT('',(-1.65,0.,-79.));
#259=CARTESIAN_POINT('',(-2.01606007812088,0.,-79.0002047065967));
#260=CARTESIAN_POINT('',(-2.09818019912735,0.,-78.9983921488278));
#261=CARTESIAN_POINT('',(-2.22877186083175,0.,-78.9887605312863));
#262=CARTESIAN_POINT('',(-2.39082942822953,0.,-78.9647202111619));
#263=CARTESIAN_POINT('',(-2.58153418822936,0.,-78.9169483869257));
#264=CARTESIAN_POINT('',(-2.76663783715734,0.,-78.8507132616248));
#265=CARTESIAN_POINT('',(-2.94435752114518,0.,-78.7666527679414));
#266=CARTESIAN_POINT('',(-3.11298152092793,0.,-78.6655765620874));
#267=CARTESIAN_POINT('',(-3.27088570458873,0.,-78.5484581544593));
#268=CARTESIAN_POINT('',(-3.41654921192896,0.,-78.4164255999955));
#269=CARTESIAN_POINT('',(-3.54856905410132,0.,-78.2707505714753));
#270=CARTESIAN_POINT('',(-3.66567368166496,0.,-78.1128361677837));
#271=CARTESIAN_POINT('',(-3.76673517191123,0.,-77.9442033480976));
#272=CARTESIAN_POINT('',(-3.85078015633372,0.,-77.7664763290795));
#273=CARTESIAN_POINT('',(-3.916999128065,0.,-77.5813669007057));
#274=CARTESIAN_POINT('',(-3.96475431001113,0.,-77.3906579724433));
#275=CARTESIAN_POINT('',(-3.98878048784654,0.,-77.2285983076378));
#276=CARTESIAN_POINT('',(-3.99840070906227,0.,-77.0980058060778));
#277=CARTESIAN_POINT('',(-4.0002569090916,0.,-77.0117192204794));
#278=CARTESIAN_POINT('',(-3.99985273279876,0.,-75.3123549195061));
#279=CARTESIAN_POINT('',(-3.99956184966632,0.,-71.9790797638144));
#280=CARTESIAN_POINT('',(-3.99927278455345,0.,-68.6666375778458));
#281=CARTESIAN_POINT('',(-3.99912734298722,0.,-67.));
#282=CARTESIAN_POINT('',(-2.66608489532482,0.,-67.));
#283=CARTESIAN_POINT('',(-1.33304244766241,0.,-67.));
#284=CARTESIAN_POINT('',(0.,0.,-67.));
#285=CARTESIAN_POINT('',(0.,0.,-36.));
#286=CARTESIAN_POINT('',(0.,0.,-79.));
#287=CARTESIAN_POINT('',(0.,0.,0.));
#288=CARTESIAN_POINT('',(0.,0.,0.));
#289=CARTESIAN_POINT('',(-3.29999999999999,0.,0.));
#290=CARTESIAN_POINT('',(0.,0.,-0.700000000000006));
#291=CARTESIAN_POINT('',(-4.,0.,-0.700000000000006));
#292=CARTESIAN_POINT('',(0.,0.,-0.700000000000006));
#293=CARTESIAN_POINT('',(3.29999999999999,0.,1.06319171702566E-16));
#294=CARTESIAN_POINT('',(0.,0.,-66.1301988432344));
#295=CARTESIAN_POINT('',(-3.8,0.,-66.1301988432344));
#296=CARTESIAN_POINT('',(0.,0.,-67.));
#297=CARTESIAN_POINT('',(-3.99912734298722,0.,-67.));
#298=CARTESIAN_POINT('',(-3.99912734298723,0.,-67.));
#299=CARTESIAN_POINT('',(-3.99912734298723,7.99825468597445,-67.));
#300=CARTESIAN_POINT('',(3.99912734298723,7.99825468597445,-67.));
#301=CARTESIAN_POINT('',(3.99912734298723,0.,-67.));
#302=CARTESIAN_POINT('',(3.99912734298723,-7.99825468597445,-67.));
#303=CARTESIAN_POINT('',(-3.99912734298723,-7.99825468597445,-67.));
#304=CARTESIAN_POINT('',(-3.99912734298723,0.,-67.));
#305=CARTESIAN_POINT('',(-3.99910094343355,0.,-66.6974833993922));
#306=CARTESIAN_POINT('',(-3.99910094343355,7.9982018868671,-66.6974833993921));
#307=CARTESIAN_POINT('',(3.99910094343355,7.9982018868671,-66.6974833993921));
#308=CARTESIAN_POINT('',(3.99910094343355,0.,-66.6974833993922));
#309=CARTESIAN_POINT('',(3.99910094343355,-7.9982018868671,-66.6974833993921));
#310=CARTESIAN_POINT('',(-3.99910094343355,-7.9982018868671,-66.6974833993921));
#311=CARTESIAN_POINT('',(-3.99910094343355,0.,-66.6974833993922));
#312=CARTESIAN_POINT('',(-3.9315910446294,0.,-66.4025957802833));
#313=CARTESIAN_POINT('',(-3.9315910446294,7.86318208925879,-66.4025957802833));
#314=CARTESIAN_POINT('',(3.9315910446294,7.86318208925879,-66.4025957802833));
#315=CARTESIAN_POINT('',(3.9315910446294,0.,-66.4025957802833));
#316=CARTESIAN_POINT('',(3.9315910446294,-7.86318208925879,-66.4025957802833));
#317=CARTESIAN_POINT('',(-3.9315910446294,-7.86318208925879,-66.4025957802833));
#318=CARTESIAN_POINT('',(-3.9315910446294,0.,-66.4025957802833));
#319=CARTESIAN_POINT('',(-3.80000000000001,0.,-66.1301988432344));
#320=CARTESIAN_POINT('',(-3.80000000000001,7.60000000000002,-66.1301988432344));
#321=CARTESIAN_POINT('',(3.80000000000001,7.60000000000002,-66.1301988432344));
#322=CARTESIAN_POINT('',(3.80000000000001,0.,-66.1301988432344));
#323=CARTESIAN_POINT('',(3.80000000000001,-7.60000000000002,-66.1301988432344));
#324=CARTESIAN_POINT('',(-3.80000000000001,-7.60000000000002,-66.1301988432344));
#325=CARTESIAN_POINT('',(-3.80000000000001,0.,-66.1301988432344));
#326=CARTESIAN_POINT('',(0.,0.,-38.));
#327=CARTESIAN_POINT('',(-3.79999999999999,0.,-38.));
#328=CARTESIAN_POINT('',(0.,0.,-36.));
#329=CARTESIAN_POINT('',(0.,0.,-36.6));
#330=CARTESIAN_POINT('',(-4.,0.,-36.6));
#331=CARTESIAN_POINT('',(0.,0.,-38.));
#332=CARTESIAN_POINT('',(0.,0.,-36.));
#333=CARTESIAN_POINT('',(0.,0.,-67.));
#334=CARTESIAN_POINT('',(0.,0.,-79.));
#335=CARTESIAN_POINT('',(-2.,0.,-79.));
#336=CARTESIAN_POINT('',(-2.22044604925031E-15,0.,-79.));
#337=CARTESIAN_POINT('',(0.,0.,-76.999825467075));
#338=CARTESIAN_POINT('',(-3.99999999238458,0.,-76.999825467075));
#339=CARTESIAN_POINT('',(-2.,0.,-79.));
#340=CARTESIAN_POINT('',(-2.,4.,-79.));
#341=CARTESIAN_POINT('',(2.,4.,-79.));
#342=CARTESIAN_POINT('',(2.,0.,-79.));
#343=CARTESIAN_POINT('',(2.,-4.,-79.));
#344=CARTESIAN_POINT('',(-2.,-4.,-79.));
#345=CARTESIAN_POINT('',(-2.,0.,-79.));
#346=CARTESIAN_POINT('',(-3.17165394148996,0.,-79.));
#347=CARTESIAN_POINT('',(-3.17165394148996,6.34330788297993,-79.));
#348=CARTESIAN_POINT('',(3.17165394148996,6.34330788297993,-79.));
#349=CARTESIAN_POINT('',(3.17165394148996,0.,-79.));
#350=CARTESIAN_POINT('',(3.17165394148996,-6.34330788297993,-79.));
#351=CARTESIAN_POINT('',(-3.17165394148996,-6.34330788297993,-79.));
#352=CARTESIAN_POINT('',(-3.17165394148996,0.,-79.));
#353=CARTESIAN_POINT('',(-4.00010223847931,0.,-78.1714794041036));
#354=CARTESIAN_POINT('',(-4.00010223847931,8.00020447695861,-78.1714794041036));
#355=CARTESIAN_POINT('',(4.00010223847931,8.00020447695861,-78.1714794041036));
#356=CARTESIAN_POINT('',(4.00010223847931,0.,-78.1714794041036));
#357=CARTESIAN_POINT('',(4.00010223847931,-8.00020447695861,-78.1714794041036));
#358=CARTESIAN_POINT('',(-4.00010223847931,-8.00020447695861,-78.1714794041036));
#359=CARTESIAN_POINT('',(-4.00010223847931,0.,-78.1714794041036));
#360=CARTESIAN_POINT('',(-3.99999999238458,0.,-76.999825467075));
#361=CARTESIAN_POINT('',(-3.99999999238458,7.99999998476916,-76.999825467075));
#362=CARTESIAN_POINT('',(3.99999999238458,7.99999998476916,-76.999825467075));
#363=CARTESIAN_POINT('',(3.99999999238458,0.,-76.999825467075));
#364=CARTESIAN_POINT('',(3.99999999238458,-7.99999998476916,-76.999825467075));
#365=CARTESIAN_POINT('',(-3.99999999238458,-7.99999998476916,-76.999825467075));
#366=CARTESIAN_POINT('',(-3.99999999238458,0.,-76.999825467075));
#367=CARTESIAN_POINT('',(0.,0.,-67.));
#368=CARTESIAN_POINT('',(-3.99912734298723,0.,-67.));
#369=CARTESIAN_POINT('',(0.,0.,-76.999825467075));
#370=CARTESIAN_POINT('',(0.,0.,-67.));
#371=MECHANICAL_DESIGN_GEOMETRIC_PRESENTATION_REPRESENTATION('',(#164,#165,
#166,#167,#168,#169,#170),#372);
#372=(
GEOMETRIC_REPRESENTATION_CONTEXT(3)
GLOBAL_UNCERTAINTY_ASSIGNED_CONTEXT((#373))
GLOBAL_UNIT_ASSIGNED_CONTEXT((#379,#375,#374))
REPRESENTATION_CONTEXT('S4521-080E3R020','TOP_LEVEL_ASSEMBLY_PART')
);
#373=UNCERTAINTY_MEASURE_WITH_UNIT(LENGTH_MEASURE(0.0254),#379,
'DISTANCE_ACCURACY_VALUE','Maximum Tolerance applied to model');
#374=(
NAMED_UNIT(*)
SI_UNIT($,.STERADIAN.)
SOLID_ANGLE_UNIT()
);
#375=(
CONVERSION_BASED_UNIT('DEGREE',#377)
NAMED_UNIT(#376)
PLANE_ANGLE_UNIT()
);
#376=DIMENSIONAL_EXPONENTS(0.,0.,0.,0.,0.,0.,0.);
#377=PLANE_ANGLE_MEASURE_WITH_UNIT(PLANE_ANGLE_MEASURE(0.0174532925),#378);
#378=(
NAMED_UNIT(*)
PLANE_ANGLE_UNIT()
SI_UNIT($,.RADIAN.)
);
#379=(
LENGTH_UNIT()
NAMED_UNIT(*)
SI_UNIT(.MILLI.,.METRE.)
);
ENDSEC;
END-ISO-10303-21;
