ISO-10303-21;
HEADER;
/* Generated by software containing ST-Developer
 * from STEP Tools, Inc. (www.steptools.com) 
 */
/* OPTION: using custom schema-name function */

FILE_DESCRIPTION(
/* description */ (''),
/* implementation_level */ '2;1');

FILE_NAME(
/* name */ 'S4521-100E2R050.0Z2_Basic.stp',
/* time_stamp */ '2024-05-14T14:07:21+06:00',
/* author */ (''),
/* organization */ (''),
/* preprocessor_version */ 'ST-DEVELOPER v16.7',
/* originating_system */ 'SIEMENS PLM Software NX 12.0',
/* authorisation */ '');

FILE_SCHEMA (('AUTOMOTIVE_DESIGN { 1 0 10303 214 3 1 1 1 }'));
ENDSEC;

DATA;
#10=CONSTRUCTIVE_GEOMETRY_REPRESENTATION_RELATIONSHIP(
'supplemental geometry','',#34,#11);
#11=CONSTRUCTIVE_GEOMETRY_REPRESENTATION('supplemental geometry',(#197,
#198,#199),#339);
#12=GEOMETRICALLY_BOUNDED_WIREFRAME_SHAPE_REPRESENTATION(
'inpu11CCCAADgfv2-None',(#35),#339);
#13=PROPERTY_DEFINITION_REPRESENTATION(#17,#15);
#14=PROPERTY_DEFINITION_REPRESENTATION(#18,#16);
#15=REPRESENTATION('',(#19),#339);
#16=REPRESENTATION('',(#20),#339);
#17=PROPERTY_DEFINITION('pmi validation property','',#25);
#18=PROPERTY_DEFINITION('pmi validation property','',#25);
#19=VALUE_REPRESENTATION_ITEM('number of annotations',COUNT_MEASURE(0.));
#20=VALUE_REPRESENTATION_ITEM('number of views',COUNT_MEASURE(0.));
#21=SHAPE_REPRESENTATION_RELATIONSHIP('None',
'relationship between inpu11CCCAADgfv2-None and inpu11CCCAADgfv2-None',
#34,#23);
#22=SHAPE_REPRESENTATION_RELATIONSHIP('None',
'relationship between inpu11CCCAADgfv2-None and inpu11CCCAADgfv2-None',
#34,#12);
#23=ADVANCED_BREP_SHAPE_REPRESENTATION('inpu11CCCAADgfv2-None',(#46,#47),
#339);
#24=SHAPE_DEFINITION_REPRESENTATION(#25,#34);
#25=PRODUCT_DEFINITION_SHAPE('','',#26);
#26=PRODUCT_DEFINITION(' ','',#28,#27);
#27=PRODUCT_DEFINITION_CONTEXT('part definition',#33,'design');
#28=PRODUCT_DEFINITION_FORMATION_WITH_SPECIFIED_SOURCE(' ',' ',#30,
 .NOT_KNOWN.);
#29=PRODUCT_RELATED_PRODUCT_CATEGORY('part','',(#30));
#30=PRODUCT('inpu11CCCAADgfv2','inpu11CCCAADgfv2',' ',(#31));
#31=PRODUCT_CONTEXT(' ',#33,'mechanical');
#32=APPLICATION_PROTOCOL_DEFINITION('international standard',
'automotive_design',2010,#33);
#33=APPLICATION_CONTEXT(
'core data for automotive mechanical design processes');
#34=SHAPE_REPRESENTATION('inpu11CCCAADgfv2-None',(#196),#339);
#35=GEOMETRIC_CURVE_SET('None',(#269,#270,#271,#272,#162));
#36=SURFACE_STYLE_USAGE(.BOTH.,#38);
#37=SURFACE_STYLE_USAGE(.BOTH.,#39);
#38=SURFACE_SIDE_STYLE('',(#40));
#39=SURFACE_SIDE_STYLE('',(#41));
#40=SURFACE_STYLE_FILL_AREA(#42);
#41=SURFACE_STYLE_FILL_AREA(#43);
#42=FILL_AREA_STYLE('',(#44));
#43=FILL_AREA_STYLE('',(#45));
#44=FILL_AREA_STYLE_COLOUR('',#194);
#45=FILL_AREA_STYLE_COLOUR('',#195);
#46=MANIFOLD_SOLID_BREP('NOCUT',#48);
#47=MANIFOLD_SOLID_BREP('CUT',#49);
#48=CLOSED_SHELL('',(#63,#64,#65,#66,#67,#68,#69));
#49=CLOSED_SHELL('',(#70,#71,#72,#73));
#50=CYLINDRICAL_SURFACE('',#208,4.75);
#51=CYLINDRICAL_SURFACE('',#211,5.);
#52=TOROIDAL_SURFACE('',#206,2.99829831349428,2.);
#53=TOROIDAL_SURFACE('',#210,9.74999999999999,5.);
#54=TOROIDAL_SURFACE('',#216,4.5,0.500000000000014);
#55=PLANE('',#203);
#56=PLANE('',#212);
#57=PLANE('',#214);
#58=PLANE('',#219);
#59=FACE_OUTER_BOUND('',#92,.T.);
#60=FACE_OUTER_BOUND('',#101,.T.);
#61=FACE_OUTER_BOUND('',#102,.T.);
#62=FACE_OUTER_BOUND('',#107,.T.);
#63=ADVANCED_FACE('',(#76,#77),#74,.T.);
#64=ADVANCED_FACE('',(#59),#55,.T.);
#65=ADVANCED_FACE('',(#78,#79),#52,.T.);
#66=ADVANCED_FACE('',(#80,#81),#50,.T.);
#67=ADVANCED_FACE('',(#82,#83),#53,.F.);
#68=ADVANCED_FACE('',(#84,#85),#51,.T.);
#69=ADVANCED_FACE('',(#60),#56,.T.);
#70=ADVANCED_FACE('',(#61),#57,.T.);
#71=ADVANCED_FACE('',(#86,#87),#54,.T.);
#72=ADVANCED_FACE('',(#88,#89),#75,.T.);
#73=ADVANCED_FACE('',(#62),#58,.F.);
#74=CONICAL_SURFACE('',#202,5.,44.9999999999999);
#75=CONICAL_SURFACE('',#218,4.99999999809616,0.00500000000004544);
#76=FACE_BOUND('',#90,.T.);
#77=FACE_BOUND('',#91,.T.);
#78=FACE_BOUND('',#93,.T.);
#79=FACE_BOUND('',#94,.T.);
#80=FACE_BOUND('',#95,.T.);
#81=FACE_BOUND('',#96,.T.);
#82=FACE_BOUND('',#97,.T.);
#83=FACE_BOUND('',#98,.T.);
#84=FACE_BOUND('',#99,.T.);
#85=FACE_BOUND('',#100,.T.);
#86=FACE_BOUND('',#103,.T.);
#87=FACE_BOUND('',#104,.T.);
#88=FACE_BOUND('',#105,.T.);
#89=FACE_BOUND('',#106,.T.);
#90=EDGE_LOOP('',(#108));
#91=EDGE_LOOP('',(#109));
#92=EDGE_LOOP('',(#110));
#93=EDGE_LOOP('',(#111));
#94=EDGE_LOOP('',(#112));
#95=EDGE_LOOP('',(#113));
#96=EDGE_LOOP('',(#114));
#97=EDGE_LOOP('',(#115));
#98=EDGE_LOOP('',(#116));
#99=EDGE_LOOP('',(#117));
#100=EDGE_LOOP('',(#118));
#101=EDGE_LOOP('',(#119));
#102=EDGE_LOOP('',(#120));
#103=EDGE_LOOP('',(#121));
#104=EDGE_LOOP('',(#122));
#105=EDGE_LOOP('',(#123));
#106=EDGE_LOOP('',(#124));
#107=EDGE_LOOP('',(#125));
#108=ORIENTED_EDGE('',*,*,#135,.T.);
#109=ORIENTED_EDGE('',*,*,#136,.F.);
#110=ORIENTED_EDGE('',*,*,#135,.F.);
#111=ORIENTED_EDGE('',*,*,#137,.T.);
#112=ORIENTED_EDGE('',*,*,#138,.F.);
#113=ORIENTED_EDGE('',*,*,#139,.T.);
#114=ORIENTED_EDGE('',*,*,#137,.F.);
#115=ORIENTED_EDGE('',*,*,#140,.T.);
#116=ORIENTED_EDGE('',*,*,#139,.F.);
#117=ORIENTED_EDGE('',*,*,#136,.T.);
#118=ORIENTED_EDGE('',*,*,#140,.F.);
#119=ORIENTED_EDGE('',*,*,#138,.T.);
#120=ORIENTED_EDGE('',*,*,#141,.T.);
#121=ORIENTED_EDGE('',*,*,#142,.T.);
#122=ORIENTED_EDGE('',*,*,#141,.F.);
#123=ORIENTED_EDGE('',*,*,#143,.F.);
#124=ORIENTED_EDGE('',*,*,#142,.F.);
#125=ORIENTED_EDGE('',*,*,#143,.T.);
#126=VERTEX_POINT('',#310);
#127=VERTEX_POINT('',#312);
#128=VERTEX_POINT('',#316);
#129=VERTEX_POINT('',#318);
#130=VERTEX_POINT('',#321);
#131=VERTEX_POINT('',#324);
#132=VERTEX_POINT('',#329);
#133=VERTEX_POINT('',#332);
#134=VERTEX_POINT('',#335);
#135=EDGE_CURVE('',#126,#126,#144,.T.);
#136=EDGE_CURVE('',#127,#127,#145,.T.);
#137=EDGE_CURVE('',#128,#128,#146,.T.);
#138=EDGE_CURVE('',#129,#129,#147,.T.);
#139=EDGE_CURVE('',#130,#130,#148,.T.);
#140=EDGE_CURVE('',#131,#131,#149,.T.);
#141=EDGE_CURVE('',#132,#132,#150,.T.);
#142=EDGE_CURVE('',#133,#133,#151,.T.);
#143=EDGE_CURVE('',#134,#134,#152,.T.);
#144=CIRCLE('',#200,4.29999999999999);
#145=CIRCLE('',#201,5.);
#146=CIRCLE('',#204,4.75);
#147=CIRCLE('',#205,4.99829830587885);
#148=CIRCLE('',#207,4.74999999999999);
#149=CIRCLE('',#209,5.);
#150=CIRCLE('',#213,4.5);
#151=CIRCLE('',#215,4.99999999809616);
#152=CIRCLE('',#217,4.99829830587885);
#153=CURVE_STYLE('',#158,POSITIVE_LENGTH_MEASURE(0.18),#157);
#154=CURVE_STYLE('',#159,POSITIVE_LENGTH_MEASURE(0.18),#193);
#155=CURVE_STYLE('',#160,POSITIVE_LENGTH_MEASURE(0.18),#193);
#156=CURVE_STYLE('',#161,POSITIVE_LENGTH_MEASURE(0.18),#193);
#157=DRAUGHTING_PRE_DEFINED_COLOUR('blue');
#158=DRAUGHTING_PRE_DEFINED_CURVE_FONT('continuous');
#159=DRAUGHTING_PRE_DEFINED_CURVE_FONT('continuous');
#160=DRAUGHTING_PRE_DEFINED_CURVE_FONT('continuous');
#161=DRAUGHTING_PRE_DEFINED_CURVE_FONT('continuous');
#162=B_SPLINE_CURVE_WITH_KNOTS('CUTTING PART LINE',3,(#273,#274,#275,#276,
#277,#278,#279,#280,#281,#282,#283,#284,#285,#286,#287,#288,#289,#290,#291,
#292,#293,#294,#295,#296,#297,#298,#299,#300,#301,#302,#303,#304,#305),
 .UNSPECIFIED.,.T.,.F.,(1,3,3,1,1,1,1,1,1,1,1,1,1,1,1,1,1,1,1,1,1,1,1,1,
1,1,3,3,1),(-0.1004003048,0.,0.4017379461,0.44693346505,0.491846512006562,
0.492128984,0.492622018021875,0.49311505204375,0.4941011200875,0.49508718813125,
0.496073256175,0.49705932421875,0.4980453922625,0.49903146030625,0.50001752835,
0.50100359639375,0.5019896644375,0.50297573248125,0.503961800525,0.50494786856875,
0.5059339366125,0.50692000465625,0.507413038678125,0.5079060727,0.508150881214062,
0.70375288395,0.8995996952,1.,1.4017379461),.UNSPECIFIED.);
#163=PRESENTATION_LAYER_ASSIGNMENT('1','Layer 1',(#269,#270,#271,#272,#162,
#197,#198,#199,#46,#47));
#164=STYLED_ITEM('',(#174),#269);
#165=STYLED_ITEM('',(#175),#270);
#166=STYLED_ITEM('',(#176),#271);
#167=STYLED_ITEM('',(#177),#272);
#168=STYLED_ITEM('',(#178),#162);
#169=STYLED_ITEM('',(#179),#197);
#170=STYLED_ITEM('',(#180),#198);
#171=STYLED_ITEM('',(#181),#199);
#172=STYLED_ITEM('',(#182),#46);
#173=STYLED_ITEM('',(#183),#47);
#174=PRESENTATION_STYLE_ASSIGNMENT((#184));
#175=PRESENTATION_STYLE_ASSIGNMENT((#185));
#176=PRESENTATION_STYLE_ASSIGNMENT((#186));
#177=PRESENTATION_STYLE_ASSIGNMENT((#187));
#178=PRESENTATION_STYLE_ASSIGNMENT((#153));
#179=PRESENTATION_STYLE_ASSIGNMENT((#154));
#180=PRESENTATION_STYLE_ASSIGNMENT((#155));
#181=PRESENTATION_STYLE_ASSIGNMENT((#156));
#182=PRESENTATION_STYLE_ASSIGNMENT((#36));
#183=PRESENTATION_STYLE_ASSIGNMENT((#37));
#184=POINT_STYLE('',#188,POSITIVE_LENGTH_MEASURE(3.),#192);
#185=POINT_STYLE('',#189,POSITIVE_LENGTH_MEASURE(3.),#193);
#186=POINT_STYLE('',#190,POSITIVE_LENGTH_MEASURE(3.),#193);
#187=POINT_STYLE('',#191,POSITIVE_LENGTH_MEASURE(3.),#193);
#188=PRE_DEFINED_POINT_MARKER_SYMBOL('plus');
#189=PRE_DEFINED_POINT_MARKER_SYMBOL('plus');
#190=PRE_DEFINED_POINT_MARKER_SYMBOL('plus');
#191=PRE_DEFINED_POINT_MARKER_SYMBOL('plus');
#192=COLOUR_RGB('Medium Royal',0.2,0.4,0.8);
#193=COLOUR_RGB('Pale Maroon',0.811749446860456,0.603921568627451,0.611749446860456);
#194=COLOUR_RGB('Medium Gray',0.490196078431373,0.490196078431373,0.490196078431373);
#195=COLOUR_RGB('Light Gray',0.8,0.8,0.8);
#196=AXIS2_PLACEMENT_3D('',#268,#220,#221);
#197=AXIS2_PLACEMENT_3D('MCS',#306,#222,#223);
#198=AXIS2_PLACEMENT_3D('CIP',#307,#224,#225);
#199=AXIS2_PLACEMENT_3D('PCS',#308,#226,#227);
#200=AXIS2_PLACEMENT_3D('',#309,#228,#229);
#201=AXIS2_PLACEMENT_3D('',#311,#230,#231);
#202=AXIS2_PLACEMENT_3D('',#313,#232,#233);
#203=AXIS2_PLACEMENT_3D('',#314,#234,#235);
#204=AXIS2_PLACEMENT_3D('',#315,#236,#237);
#205=AXIS2_PLACEMENT_3D('',#317,#238,#239);
#206=AXIS2_PLACEMENT_3D('',#319,#240,#241);
#207=AXIS2_PLACEMENT_3D('',#320,#242,#243);
#208=AXIS2_PLACEMENT_3D('',#322,#244,#245);
#209=AXIS2_PLACEMENT_3D('',#323,#246,#247);
#210=AXIS2_PLACEMENT_3D('',#325,#248,#249);
#211=AXIS2_PLACEMENT_3D('',#326,#250,#251);
#212=AXIS2_PLACEMENT_3D('',#327,#252,#253);
#213=AXIS2_PLACEMENT_3D('',#328,#254,#255);
#214=AXIS2_PLACEMENT_3D('',#330,#256,#257);
#215=AXIS2_PLACEMENT_3D('',#331,#258,#259);
#216=AXIS2_PLACEMENT_3D('',#333,#260,#261);
#217=AXIS2_PLACEMENT_3D('',#334,#262,#263);
#218=AXIS2_PLACEMENT_3D('',#336,#264,#265);
#219=AXIS2_PLACEMENT_3D('',#337,#266,#267);
#220=DIRECTION('',(0.,0.,1.));
#221=DIRECTION('',(1.,0.,0.));
#222=DIRECTION('',(0.,0.,1.));
#223=DIRECTION('',(1.,0.,0.));
#224=DIRECTION('',(0.,0.,1.));
#225=DIRECTION('',(1.,0.,0.));
#226=DIRECTION('',(0.,0.,1.));
#227=DIRECTION('',(1.,0.,0.));
#228=DIRECTION('',(0.,0.,-1.));
#229=DIRECTION('',(-1.,0.,0.));
#230=DIRECTION('',(0.,0.,-1.));
#231=DIRECTION('',(-1.,0.,0.));
#232=DIRECTION('',(0.,0.,-1.));
#233=DIRECTION('',(1.,0.,8.26367028979004E-17));
#234=DIRECTION('',(0.,0.,1.));
#235=DIRECTION('',(-1.,0.,0.));
#236=DIRECTION('',(0.,0.,-1.));
#237=DIRECTION('',(-1.,0.,0.));
#238=DIRECTION('',(0.,0.,-1.));
#239=DIRECTION('',(-1.,0.,0.));
#240=DIRECTION('',(0.,0.,-1.));
#241=DIRECTION('',(1.,0.,0.));
#242=DIRECTION('',(0.,0.,-1.));
#243=DIRECTION('',(-1.,0.,0.));
#244=DIRECTION('',(0.,0.,-1.));
#245=DIRECTION('',(1.,0.,0.));
#246=DIRECTION('',(0.,0.,-1.));
#247=DIRECTION('',(-1.,0.,0.));
#248=DIRECTION('',(0.,0.,-1.));
#249=DIRECTION('',(1.,0.,0.));
#250=DIRECTION('',(0.,0.,-1.));
#251=DIRECTION('',(1.,0.,0.));
#252=DIRECTION('',(0.,0.,-1.));
#253=DIRECTION('',(1.,0.,0.));
#254=DIRECTION('',(0.,0.,-1.));
#255=DIRECTION('',(-1.,0.,0.));
#256=DIRECTION('',(0.,0.,-1.));
#257=DIRECTION('',(1.,0.,0.));
#258=DIRECTION('',(0.,0.,-1.));
#259=DIRECTION('',(-1.,0.,0.));
#260=DIRECTION('',(0.,0.,-1.));
#261=DIRECTION('',(1.,0.,0.));
#262=DIRECTION('',(0.,0.,1.));
#263=DIRECTION('',(-1.,0.,0.));
#264=DIRECTION('',(0.,0.,-1.));
#265=DIRECTION('',(1.,0.,-1.36397296214259E-14));
#266=DIRECTION('',(0.,0.,-1.));
#267=DIRECTION('',(1.,0.,0.));
#268=CARTESIAN_POINT('',(0.,0.,0.));
#269=CARTESIAN_POINT('CRP',(-5.,0.,-72.));
#270=CARTESIAN_POINT('',(0.,0.,-39.4387505004004));
#271=CARTESIAN_POINT('',(0.,0.,-72.));
#272=CARTESIAN_POINT('',(0.,0.,0.));
#273=CARTESIAN_POINT('',(0.,0.,-52.));
#274=CARTESIAN_POINT('',(0.,0.,-58.6666666666667));
#275=CARTESIAN_POINT('',(0.,0.,-65.3333333333333));
#276=CARTESIAN_POINT('',(0.,0.,-72.));
#277=CARTESIAN_POINT('',(-0.75,0.,-72.));
#278=CARTESIAN_POINT('',(-2.2453125,0.,-72.));
#279=CARTESIAN_POINT('',(-3.7453125,0.,-72.));
#280=CARTESIAN_POINT('',(-4.50349418628771,0.,-72.0000575737304));
#281=CARTESIAN_POINT('',(-4.52454504978184,0.,-71.999598037207));
#282=CARTESIAN_POINT('',(-4.55719296520794,0.,-71.9971901328216));
#283=CARTESIAN_POINT('',(-4.59770735705738,0.,-71.9911800527905));
#284=CARTESIAN_POINT('',(-4.64538354705734,0.,-71.9792370967314));
#285=CARTESIAN_POINT('',(-4.69165945928934,0.,-71.9626783154062));
#286=CARTESIAN_POINT('',(-4.7360893802863,0.,-71.9416631919854));
#287=CARTESIAN_POINT('',(-4.7782453802296,0.,-71.9163941405241));
#288=CARTESIAN_POINT('',(-4.8177214261567,0.,-71.8871145386059));
#289=CARTESIAN_POINT('',(-4.85413730294998,0.,-71.8541064000311));
#290=CARTESIAN_POINT('',(-4.88714226353424,0.,-71.8176876428593));
#291=CARTESIAN_POINT('',(-4.91641842041401,0.,-71.7782090419483));
#292=CARTESIAN_POINT('',(-4.94168379297781,0.,-71.7360508370244));
#293=CARTESIAN_POINT('',(-4.96269503908343,0.,-71.6916190822699));
#294=CARTESIAN_POINT('',(-4.97924978201625,0.,-71.6453417251764));
#295=CARTESIAN_POINT('',(-4.99118857750278,0.,-71.5976644931108));
#296=CARTESIAN_POINT('',(-4.99719512196163,0.,-71.5571495769095));
#297=CARTESIAN_POINT('',(-4.99960017726557,0.,-71.5245014515195));
#298=CARTESIAN_POINT('',(-5.00005025468494,0.,-71.5040755576435));
#299=CARTESIAN_POINT('',(-4.99971602820738,0.,-68.2459011480642));
#300=CARTESIAN_POINT('',(-4.99914879746828,0.,-61.7459156924747));
#301=CARTESIAN_POINT('',(-4.99858192124839,0.,-55.2499927277948));
#302=CARTESIAN_POINT('',(-4.99829830587885,0.,-52.));
#303=CARTESIAN_POINT('',(-3.3321988705859,0.,-52.));
#304=CARTESIAN_POINT('',(-1.66609943529295,0.,-52.));
#305=CARTESIAN_POINT('',(0.,0.,-52.));
#306=CARTESIAN_POINT('',(0.,0.,-39.4387505004004));
#307=CARTESIAN_POINT('',(0.,0.,-72.));
#308=CARTESIAN_POINT('',(0.,0.,0.));
#309=CARTESIAN_POINT('',(0.,0.,0.));
#310=CARTESIAN_POINT('',(-4.29999999999999,0.,0.));
#311=CARTESIAN_POINT('',(0.,0.,-0.700000000000006));
#312=CARTESIAN_POINT('',(-5.,0.,-0.700000000000006));
#313=CARTESIAN_POINT('',(0.,0.,-0.700000000000006));
#314=CARTESIAN_POINT('',(4.29999999999999,0.,1.06319171702566E-16));
#315=CARTESIAN_POINT('',(0.,0.,-51.0350107118599));
#316=CARTESIAN_POINT('',(-4.75,0.,-51.0350107118599));
#317=CARTESIAN_POINT('',(0.,0.,-52.));
#318=CARTESIAN_POINT('',(-4.99829830587885,0.,-52.));
#319=CARTESIAN_POINT('',(0.,0.,-52.000174532925));
#320=CARTESIAN_POINT('',(0.,0.,-41.));
#321=CARTESIAN_POINT('',(-4.74999999999999,0.,-41.));
#322=CARTESIAN_POINT('',(0.,0.,-40.));
#323=CARTESIAN_POINT('',(0.,0.,-39.4387505004004));
#324=CARTESIAN_POINT('',(-5.,0.,-39.4387505004004));
#325=CARTESIAN_POINT('',(0.,0.,-41.));
#326=CARTESIAN_POINT('',(0.,0.,-40.));
#327=CARTESIAN_POINT('',(0.,0.,-52.));
#328=CARTESIAN_POINT('',(0.,0.,-72.));
#329=CARTESIAN_POINT('',(-4.5,0.,-72.));
#330=CARTESIAN_POINT('',(-3.10862446895044E-15,0.,-72.));
#331=CARTESIAN_POINT('',(0.,0.,-71.4999563667688));
#332=CARTESIAN_POINT('',(-4.99999999809616,0.,-71.4999563667688));
#333=CARTESIAN_POINT('',(0.,0.,-71.5));
#334=CARTESIAN_POINT('',(0.,0.,-52.));
#335=CARTESIAN_POINT('',(-4.99829830587885,0.,-52.));
#336=CARTESIAN_POINT('',(0.,0.,-71.4999563667688));
#337=CARTESIAN_POINT('',(0.,0.,-52.));
#338=MECHANICAL_DESIGN_GEOMETRIC_PRESENTATION_REPRESENTATION('',(#164,#165,
#166,#167,#168,#169,#170,#171,#172,#173),#339);
#339=(
GEOMETRIC_REPRESENTATION_CONTEXT(3)
GLOBAL_UNCERTAINTY_ASSIGNED_CONTEXT((#340))
GLOBAL_UNIT_ASSIGNED_CONTEXT((#346,#342,#341))
REPRESENTATION_CONTEXT('S4521-100E2R050','TOP_LEVEL_ASSEMBLY_PART')
);
#340=UNCERTAINTY_MEASURE_WITH_UNIT(LENGTH_MEASURE(2.E-5),#346,
'DISTANCE_ACCURACY_VALUE','Maximum Tolerance applied to model');
#341=(
NAMED_UNIT(*)
SI_UNIT($,.STERADIAN.)
SOLID_ANGLE_UNIT()
);
#342=(
CONVERSION_BASED_UNIT('DEGREE',#344)
NAMED_UNIT(#343)
PLANE_ANGLE_UNIT()
);
#343=DIMENSIONAL_EXPONENTS(0.,0.,0.,0.,0.,0.,0.);
#344=PLANE_ANGLE_MEASURE_WITH_UNIT(PLANE_ANGLE_MEASURE(0.0174532925),#345);
#345=(
NAMED_UNIT(*)
PLANE_ANGLE_UNIT()
SI_UNIT($,.RADIAN.)
);
#346=(
LENGTH_UNIT()
NAMED_UNIT(*)
SI_UNIT(.MILLI.,.METRE.)
);
ENDSEC;
END-ISO-10303-21;
