ISO-10303-21;
HEADER;
/* Generated by software containing ST-Developer
 * from STEP Tools, Inc. (www.steptools.com) 
 */
/* OPTION: using custom schema-name function */

FILE_DESCRIPTION(
/* description */ (''),
/* implementation_level */ '2;1');

FILE_NAME(
/* name */ 'S4521-120E3R050.0Z2_Basic.stp',
/* time_stamp */ '2024-05-06T10:29:07+06:00',
/* author */ (''),
/* organization */ (''),
/* preprocessor_version */ 'ST-DEVELOPER v16.7',
/* originating_system */ 'SIEMENS PLM Software NX 12.0',
/* authorisation */ '');

FILE_SCHEMA (('AUTOMOTIVE_DESIGN { 1 0 10303 214 3 1 1 1 }'));
ENDSEC;

DATA;
#10=CONSTRUCTIVE_GEOMETRY_REPRESENTATION_RELATIONSHIP(
'supplemental geometry','',#34,#11);
#11=CONSTRUCTIVE_GEOMETRY_REPRESENTATION('supplemental geometry',(#185,
#186,#187),#324);
#12=GEOMETRICALLY_BOUNDED_WIREFRAME_SHAPE_REPRESENTATION(
'inpu56E41CD11sdy-None',(#35),#324);
#13=PROPERTY_DEFINITION_REPRESENTATION(#17,#15);
#14=PROPERTY_DEFINITION_REPRESENTATION(#18,#16);
#15=REPRESENTATION('',(#19),#324);
#16=REPRESENTATION('',(#20),#324);
#17=PROPERTY_DEFINITION('pmi validation property','',#25);
#18=PROPERTY_DEFINITION('pmi validation property','',#25);
#19=VALUE_REPRESENTATION_ITEM('number of annotations',COUNT_MEASURE(0.));
#20=VALUE_REPRESENTATION_ITEM('number of views',COUNT_MEASURE(0.));
#21=SHAPE_REPRESENTATION_RELATIONSHIP('None',
'relationship between inpu56E41CD11sdy-None and inpu56E41CD11sdy-None',
#34,#23);
#22=SHAPE_REPRESENTATION_RELATIONSHIP('None',
'relationship between inpu56E41CD11sdy-None and inpu56E41CD11sdy-None',
#34,#12);
#23=ADVANCED_BREP_SHAPE_REPRESENTATION('inpu56E41CD11sdy-None',(#46,#47),
#324);
#24=SHAPE_DEFINITION_REPRESENTATION(#25,#34);
#25=PRODUCT_DEFINITION_SHAPE('','',#26);
#26=PRODUCT_DEFINITION(' ','',#28,#27);
#27=PRODUCT_DEFINITION_CONTEXT('part definition',#33,'design');
#28=PRODUCT_DEFINITION_FORMATION_WITH_SPECIFIED_SOURCE(' ',' ',#30,
 .NOT_KNOWN.);
#29=PRODUCT_RELATED_PRODUCT_CATEGORY('part','',(#30));
#30=PRODUCT('inpu56E41CD11sdy','inpu56E41CD11sdy',' ',(#31));
#31=PRODUCT_CONTEXT(' ',#33,'mechanical');
#32=APPLICATION_PROTOCOL_DEFINITION('international standard',
'automotive_design',2010,#33);
#33=APPLICATION_CONTEXT(
'core data for automotive mechanical design processes');
#34=SHAPE_REPRESENTATION('inpu56E41CD11sdy-None',(#184),#324);
#35=GEOMETRIC_CURVE_SET('None',(#257,#162));
#36=SURFACE_STYLE_USAGE(.BOTH.,#38);
#37=SURFACE_STYLE_USAGE(.BOTH.,#39);
#38=SURFACE_SIDE_STYLE('',(#40));
#39=SURFACE_SIDE_STYLE('',(#41));
#40=SURFACE_STYLE_FILL_AREA(#42);
#41=SURFACE_STYLE_FILL_AREA(#43);
#42=FILL_AREA_STYLE('',(#44));
#43=FILL_AREA_STYLE('',(#45));
#44=FILL_AREA_STYLE_COLOUR('',#182);
#45=FILL_AREA_STYLE_COLOUR('',#183);
#46=MANIFOLD_SOLID_BREP('NOCUT',#48);
#47=MANIFOLD_SOLID_BREP('CUT',#49);
#48=CLOSED_SHELL('',(#63,#64,#65,#66,#67,#68,#69));
#49=CLOSED_SHELL('',(#70,#71,#72,#73));
#50=CYLINDRICAL_SURFACE('',#196,5.7);
#51=CYLINDRICAL_SURFACE('',#199,6.);
#52=TOROIDAL_SURFACE('',#194,3.99847284641992,2.);
#53=TOROIDAL_SURFACE('',#198,10.7,5.);
#54=TOROIDAL_SURFACE('',#204,5.50000000000001,0.500000000000014);
#55=PLANE('',#191);
#56=PLANE('',#200);
#57=PLANE('',#202);
#58=PLANE('',#207);
#59=FACE_OUTER_BOUND('',#92,.T.);
#60=FACE_OUTER_BOUND('',#101,.T.);
#61=FACE_OUTER_BOUND('',#102,.T.);
#62=FACE_OUTER_BOUND('',#107,.T.);
#63=ADVANCED_FACE('',(#76,#77),#74,.T.);
#64=ADVANCED_FACE('',(#59),#55,.T.);
#65=ADVANCED_FACE('',(#78,#79),#52,.T.);
#66=ADVANCED_FACE('',(#80,#81),#50,.T.);
#67=ADVANCED_FACE('',(#82,#83),#53,.F.);
#68=ADVANCED_FACE('',(#84,#85),#51,.T.);
#69=ADVANCED_FACE('',(#60),#56,.T.);
#70=ADVANCED_FACE('',(#61),#57,.T.);
#71=ADVANCED_FACE('',(#86,#87),#54,.T.);
#72=ADVANCED_FACE('',(#88,#89),#75,.T.);
#73=ADVANCED_FACE('',(#62),#58,.F.);
#74=CONICAL_SURFACE('',#190,6.,45.);
#75=CONICAL_SURFACE('',#206,5.99999999809616,0.00500000000004826);
#76=FACE_BOUND('',#90,.T.);
#77=FACE_BOUND('',#91,.T.);
#78=FACE_BOUND('',#93,.T.);
#79=FACE_BOUND('',#94,.T.);
#80=FACE_BOUND('',#95,.T.);
#81=FACE_BOUND('',#96,.T.);
#82=FACE_BOUND('',#97,.T.);
#83=FACE_BOUND('',#98,.T.);
#84=FACE_BOUND('',#99,.T.);
#85=FACE_BOUND('',#100,.T.);
#86=FACE_BOUND('',#103,.T.);
#87=FACE_BOUND('',#104,.T.);
#88=FACE_BOUND('',#105,.T.);
#89=FACE_BOUND('',#106,.T.);
#90=EDGE_LOOP('',(#108));
#91=EDGE_LOOP('',(#109));
#92=EDGE_LOOP('',(#110));
#93=EDGE_LOOP('',(#111));
#94=EDGE_LOOP('',(#112));
#95=EDGE_LOOP('',(#113));
#96=EDGE_LOOP('',(#114));
#97=EDGE_LOOP('',(#115));
#98=EDGE_LOOP('',(#116));
#99=EDGE_LOOP('',(#117));
#100=EDGE_LOOP('',(#118));
#101=EDGE_LOOP('',(#119));
#102=EDGE_LOOP('',(#120));
#103=EDGE_LOOP('',(#121));
#104=EDGE_LOOP('',(#122));
#105=EDGE_LOOP('',(#123));
#106=EDGE_LOOP('',(#124));
#107=EDGE_LOOP('',(#125));
#108=ORIENTED_EDGE('',*,*,#135,.T.);
#109=ORIENTED_EDGE('',*,*,#136,.F.);
#110=ORIENTED_EDGE('',*,*,#135,.F.);
#111=ORIENTED_EDGE('',*,*,#137,.T.);
#112=ORIENTED_EDGE('',*,*,#138,.F.);
#113=ORIENTED_EDGE('',*,*,#139,.T.);
#114=ORIENTED_EDGE('',*,*,#137,.F.);
#115=ORIENTED_EDGE('',*,*,#140,.T.);
#116=ORIENTED_EDGE('',*,*,#139,.F.);
#117=ORIENTED_EDGE('',*,*,#136,.T.);
#118=ORIENTED_EDGE('',*,*,#140,.F.);
#119=ORIENTED_EDGE('',*,*,#138,.T.);
#120=ORIENTED_EDGE('',*,*,#141,.T.);
#121=ORIENTED_EDGE('',*,*,#142,.T.);
#122=ORIENTED_EDGE('',*,*,#141,.F.);
#123=ORIENTED_EDGE('',*,*,#143,.F.);
#124=ORIENTED_EDGE('',*,*,#142,.F.);
#125=ORIENTED_EDGE('',*,*,#143,.T.);
#126=VERTEX_POINT('',#295);
#127=VERTEX_POINT('',#297);
#128=VERTEX_POINT('',#301);
#129=VERTEX_POINT('',#303);
#130=VERTEX_POINT('',#306);
#131=VERTEX_POINT('',#309);
#132=VERTEX_POINT('',#314);
#133=VERTEX_POINT('',#317);
#134=VERTEX_POINT('',#320);
#135=EDGE_CURVE('',#126,#126,#144,.T.);
#136=EDGE_CURVE('',#127,#127,#145,.T.);
#137=EDGE_CURVE('',#128,#128,#146,.T.);
#138=EDGE_CURVE('',#129,#129,#147,.T.);
#139=EDGE_CURVE('',#130,#130,#148,.T.);
#140=EDGE_CURVE('',#131,#131,#149,.T.);
#141=EDGE_CURVE('',#132,#132,#150,.T.);
#142=EDGE_CURVE('',#133,#133,#151,.T.);
#143=EDGE_CURVE('',#134,#134,#152,.T.);
#144=CIRCLE('',#188,5.);
#145=CIRCLE('',#189,6.);
#146=CIRCLE('',#192,5.7);
#147=CIRCLE('',#193,5.99847283880449);
#148=CIRCLE('',#195,5.7);
#149=CIRCLE('',#197,6.);
#150=CIRCLE('',#201,5.50000000000001);
#151=CIRCLE('',#203,5.99999999809616);
#152=CIRCLE('',#205,5.99847283880449);
#153=CURVE_STYLE('',#158,POSITIVE_LENGTH_MEASURE(0.18),#157);
#154=CURVE_STYLE('',#159,POSITIVE_LENGTH_MEASURE(0.18),#181);
#155=CURVE_STYLE('',#160,POSITIVE_LENGTH_MEASURE(0.18),#181);
#156=CURVE_STYLE('',#161,POSITIVE_LENGTH_MEASURE(0.18),#181);
#157=DRAUGHTING_PRE_DEFINED_COLOUR('blue');
#158=DRAUGHTING_PRE_DEFINED_CURVE_FONT('continuous');
#159=DRAUGHTING_PRE_DEFINED_CURVE_FONT('continuous');
#160=DRAUGHTING_PRE_DEFINED_CURVE_FONT('continuous');
#161=DRAUGHTING_PRE_DEFINED_CURVE_FONT('continuous');
#162=B_SPLINE_CURVE_WITH_KNOTS('CUTTING PART LINE',3,(#258,#259,#260,#261,
#262,#263,#264,#265,#266,#267,#268,#269,#270,#271,#272,#273,#274,#275,#276,
#277,#278,#279,#280,#281,#282,#283,#284,#285,#286,#287,#288,#289,#290),
 .UNSPECIFIED.,.T.,.F.,(4,3,1,1,1,1,1,1,1,1,1,1,1,1,1,1,1,1,1,1,1,1,1,1,
1,3,4),(0.,0.3766961444,0.43424694425,0.491545959350656,0.4917977441,0.492311412325,
0.49282508055,0.493852417,0.49487975345,0.4959070899,0.49693442635,0.4979617628,
0.49898909925,0.5000164357,0.50104377215,0.5020711086,0.50309844505,0.5041257815,
0.50515311795,0.5061804544,0.50720779085,0.507721459075,0.5082351273,0.508464021956813,
0.69135085275,0.8744665782,1.),.UNSPECIFIED.);
#163=PRESENTATION_LAYER_ASSIGNMENT('1','Layer 1',(#257,#162,#185,#186,#187,
#46,#47));
#164=STYLED_ITEM('',(#171),#257);
#165=STYLED_ITEM('',(#172),#162);
#166=STYLED_ITEM('',(#173),#185);
#167=STYLED_ITEM('',(#174),#186);
#168=STYLED_ITEM('',(#175),#187);
#169=STYLED_ITEM('',(#176),#46);
#170=STYLED_ITEM('',(#177),#47);
#171=PRESENTATION_STYLE_ASSIGNMENT((#178));
#172=PRESENTATION_STYLE_ASSIGNMENT((#153));
#173=PRESENTATION_STYLE_ASSIGNMENT((#154));
#174=PRESENTATION_STYLE_ASSIGNMENT((#155));
#175=PRESENTATION_STYLE_ASSIGNMENT((#156));
#176=PRESENTATION_STYLE_ASSIGNMENT((#36));
#177=PRESENTATION_STYLE_ASSIGNMENT((#37));
#178=POINT_STYLE('',#179,POSITIVE_LENGTH_MEASURE(3.),#180);
#179=PRE_DEFINED_POINT_MARKER_SYMBOL('plus');
#180=COLOUR_RGB('Medium Royal',0.2,0.4,0.8);
#181=COLOUR_RGB('Pale Maroon',0.811749446860456,0.603921568627451,0.611749446860456);
#182=COLOUR_RGB('Medium Gray',0.490196078431373,0.490196078431373,0.490196078431373);
#183=COLOUR_RGB('Light Gray',0.8,0.8,0.8);
#184=AXIS2_PLACEMENT_3D('',#256,#208,#209);
#185=AXIS2_PLACEMENT_3D('MCS',#291,#210,#211);
#186=AXIS2_PLACEMENT_3D('CIP',#292,#212,#213);
#187=AXIS2_PLACEMENT_3D('PCS',#293,#214,#215);
#188=AXIS2_PLACEMENT_3D('',#294,#216,#217);
#189=AXIS2_PLACEMENT_3D('',#296,#218,#219);
#190=AXIS2_PLACEMENT_3D('',#298,#220,#221);
#191=AXIS2_PLACEMENT_3D('',#299,#222,#223);
#192=AXIS2_PLACEMENT_3D('',#300,#224,#225);
#193=AXIS2_PLACEMENT_3D('',#302,#226,#227);
#194=AXIS2_PLACEMENT_3D('',#304,#228,#229);
#195=AXIS2_PLACEMENT_3D('',#305,#230,#231);
#196=AXIS2_PLACEMENT_3D('',#307,#232,#233);
#197=AXIS2_PLACEMENT_3D('',#308,#234,#235);
#198=AXIS2_PLACEMENT_3D('',#310,#236,#237);
#199=AXIS2_PLACEMENT_3D('',#311,#238,#239);
#200=AXIS2_PLACEMENT_3D('',#312,#240,#241);
#201=AXIS2_PLACEMENT_3D('',#313,#242,#243);
#202=AXIS2_PLACEMENT_3D('',#315,#244,#245);
#203=AXIS2_PLACEMENT_3D('',#316,#246,#247);
#204=AXIS2_PLACEMENT_3D('',#318,#248,#249);
#205=AXIS2_PLACEMENT_3D('',#319,#250,#251);
#206=AXIS2_PLACEMENT_3D('',#321,#252,#253);
#207=AXIS2_PLACEMENT_3D('',#322,#254,#255);
#208=DIRECTION('',(0.,0.,1.));
#209=DIRECTION('',(1.,0.,0.));
#210=DIRECTION('',(0.,0.,1.));
#211=DIRECTION('',(1.,0.,0.));
#212=DIRECTION('',(0.,0.,1.));
#213=DIRECTION('',(1.,0.,0.));
#214=DIRECTION('',(0.,0.,1.));
#215=DIRECTION('',(1.,0.,0.));
#216=DIRECTION('',(0.,0.,-1.));
#217=DIRECTION('',(-1.,0.,0.));
#218=DIRECTION('',(0.,0.,-1.));
#219=DIRECTION('',(-1.,0.,0.));
#220=DIRECTION('',(0.,0.,-1.));
#221=DIRECTION('',(-1.,0.,1.10360141612839E-16));
#222=DIRECTION('',(0.,0.,1.));
#223=DIRECTION('',(1.,0.,0.));
#224=DIRECTION('',(0.,0.,-1.));
#225=DIRECTION('',(-1.,0.,0.));
#226=DIRECTION('',(0.,0.,-1.));
#227=DIRECTION('',(-1.,0.,0.));
#228=DIRECTION('',(0.,0.,-1.));
#229=DIRECTION('',(-1.,0.,0.));
#230=DIRECTION('',(0.,0.,-1.));
#231=DIRECTION('',(-1.,0.,0.));
#232=DIRECTION('',(0.,0.,-1.));
#233=DIRECTION('',(-1.,0.,0.));
#234=DIRECTION('',(0.,0.,-1.));
#235=DIRECTION('',(-1.,0.,0.));
#236=DIRECTION('',(0.,0.,-1.));
#237=DIRECTION('',(-1.,0.,0.));
#238=DIRECTION('',(0.,0.,-1.));
#239=DIRECTION('',(-1.,0.,0.));
#240=DIRECTION('',(0.,0.,-1.));
#241=DIRECTION('',(-1.,0.,0.));
#242=DIRECTION('',(0.,0.,-1.));
#243=DIRECTION('',(-1.,0.,0.));
#244=DIRECTION('',(0.,0.,-1.));
#245=DIRECTION('',(-1.,0.,0.));
#246=DIRECTION('',(0.,0.,-1.));
#247=DIRECTION('',(-1.,0.,0.));
#248=DIRECTION('',(0.,0.,-1.));
#249=DIRECTION('',(-1.,0.,0.));
#250=DIRECTION('',(0.,0.,1.));
#251=DIRECTION('',(-1.,0.,0.));
#252=DIRECTION('',(0.,0.,-1.));
#253=DIRECTION('',(-1.,0.,-6.83941859465819E-15));
#254=DIRECTION('',(0.,0.,-1.));
#255=DIRECTION('',(-1.,0.,0.));
#256=CARTESIAN_POINT('',(0.,0.,0.));
#257=CARTESIAN_POINT('CRP',(-6.,0.,-119.));
#258=CARTESIAN_POINT('',(0.,0.,-101.));
#259=CARTESIAN_POINT('',(0.,0.,-107.));
#260=CARTESIAN_POINT('',(0.,0.,-113.));
#261=CARTESIAN_POINT('',(0.,0.,-119.));
#262=CARTESIAN_POINT('',(-0.916666666666667,0.,-119.));
#263=CARTESIAN_POINT('',(-2.74598958333333,0.,-119.));
#264=CARTESIAN_POINT('',(-4.57932291666667,0.,-119.));
#265=CARTESIAN_POINT('',(-5.50417126951731,0.,-119.000049257525));
#266=CARTESIAN_POINT('',(-5.52454504978184,0.,-118.999598037207));
#267=CARTESIAN_POINT('',(-5.55719296520794,0.,-118.997190132822));
#268=CARTESIAN_POINT('',(-5.59770735705738,0.,-118.99118005279));
#269=CARTESIAN_POINT('',(-5.64538354705734,0.,-118.979237096731));
#270=CARTESIAN_POINT('',(-5.69165945928934,0.,-118.962678315406));
#271=CARTESIAN_POINT('',(-5.7360893802863,0.,-118.941663191985));
#272=CARTESIAN_POINT('',(-5.77824538023198,0.,-118.916394140522));
#273=CARTESIAN_POINT('',(-5.81772142614718,0.,-118.887114538615));
#274=CARTESIAN_POINT('',(-5.85413730298224,0.,-118.854106399999));
#275=CARTESIAN_POINT('',(-5.88714226352534,0.,-118.817687642869));
#276=CARTESIAN_POINT('',(-5.91641842041624,0.,-118.778209041946));
#277=CARTESIAN_POINT('',(-5.94168379297781,0.,-118.736050837024));
#278=CARTESIAN_POINT('',(-5.96269503908343,0.,-118.69161908227));
#279=CARTESIAN_POINT('',(-5.97924978201626,0.,-118.645341725176));
#280=CARTESIAN_POINT('',(-5.99118857750278,0.,-118.597664493111));
#281=CARTESIAN_POINT('',(-5.99719512196163,0.,-118.557149576909));
#282=CARTESIAN_POINT('',(-5.99960017726557,0.,-118.524501451519));
#283=CARTESIAN_POINT('',(-6.00004517338086,0.,-118.504492224702));
#284=CARTESIAN_POINT('',(-5.99974515338935,0.,-115.579651148064));
#285=CARTESIAN_POINT('',(-5.99923610029213,0.,-109.746332359141));
#286=CARTESIAN_POINT('',(-5.9987273653531,0.,-103.916659394461));
#287=CARTESIAN_POINT('',(-5.99847283880449,0.,-101.));
#288=CARTESIAN_POINT('',(-3.99898189253633,0.,-101.));
#289=CARTESIAN_POINT('',(-1.99949094626816,0.,-101.));
#290=CARTESIAN_POINT('',(0.,0.,-101.));
#291=CARTESIAN_POINT('',(0.,0.,-45.));
#292=CARTESIAN_POINT('',(0.,0.,-119.));
#293=CARTESIAN_POINT('',(0.,0.,0.));
#294=CARTESIAN_POINT('',(0.,0.,0.));
#295=CARTESIAN_POINT('',(-5.,0.,0.));
#296=CARTESIAN_POINT('',(0.,0.,-1.));
#297=CARTESIAN_POINT('',(-6.,0.,-1.));
#298=CARTESIAN_POINT('',(0.,0.,-1.));
#299=CARTESIAN_POINT('',(5.,0.,6.56746651543947E-17));
#300=CARTESIAN_POINT('',(0.,0.,-99.9490773225635));
#301=CARTESIAN_POINT('',(-5.7,0.,-99.9490773225635));
#302=CARTESIAN_POINT('',(0.,0.,-101.));
#303=CARTESIAN_POINT('',(-5.99847283880449,0.,-101.));
#304=CARTESIAN_POINT('',(0.,0.,-101.000174532925));
#305=CARTESIAN_POINT('',(0.,0.,-47.));
#306=CARTESIAN_POINT('',(-5.7,0.,-47.));
#307=CARTESIAN_POINT('',(0.,0.,-45.));
#308=CARTESIAN_POINT('',(0.,0.,-45.2941277890768));
#309=CARTESIAN_POINT('',(-6.,0.,-45.2941277890768));
#310=CARTESIAN_POINT('',(0.,0.,-47.));
#311=CARTESIAN_POINT('',(0.,0.,-45.));
#312=CARTESIAN_POINT('',(0.,0.,-101.));
#313=CARTESIAN_POINT('',(0.,0.,-119.));
#314=CARTESIAN_POINT('',(-5.50000000000001,0.,-119.));
#315=CARTESIAN_POINT('',(2.66453525910038E-15,0.,-119.));
#316=CARTESIAN_POINT('',(0.,0.,-118.499956366769));
#317=CARTESIAN_POINT('',(-5.99999999809616,0.,-118.499956366769));
#318=CARTESIAN_POINT('',(0.,0.,-118.5));
#319=CARTESIAN_POINT('',(0.,0.,-101.));
#320=CARTESIAN_POINT('',(-5.99847283880449,0.,-101.));
#321=CARTESIAN_POINT('',(0.,0.,-118.499956366769));
#322=CARTESIAN_POINT('',(0.,0.,-101.));
#323=MECHANICAL_DESIGN_GEOMETRIC_PRESENTATION_REPRESENTATION('',(#164,#165,
#166,#167,#168,#169,#170),#324);
#324=(
GEOMETRIC_REPRESENTATION_CONTEXT(3)
GLOBAL_UNCERTAINTY_ASSIGNED_CONTEXT((#325))
GLOBAL_UNIT_ASSIGNED_CONTEXT((#331,#327,#326))
REPRESENTATION_CONTEXT('S4521-120E3R050','TOP_LEVEL_ASSEMBLY_PART')
);
#325=UNCERTAINTY_MEASURE_WITH_UNIT(LENGTH_MEASURE(2.E-5),#331,
'DISTANCE_ACCURACY_VALUE','Maximum Tolerance applied to model');
#326=(
NAMED_UNIT(*)
SI_UNIT($,.STERADIAN.)
SOLID_ANGLE_UNIT()
);
#327=(
CONVERSION_BASED_UNIT('DEGREE',#329)
NAMED_UNIT(#328)
PLANE_ANGLE_UNIT()
);
#328=DIMENSIONAL_EXPONENTS(0.,0.,0.,0.,0.,0.,0.);
#329=PLANE_ANGLE_MEASURE_WITH_UNIT(PLANE_ANGLE_MEASURE(0.0174532925),#330);
#330=(
NAMED_UNIT(*)
PLANE_ANGLE_UNIT()
SI_UNIT($,.RADIAN.)
);
#331=(
LENGTH_UNIT()
NAMED_UNIT(*)
SI_UNIT(.MILLI.,.METRE.)
);
ENDSEC;
END-ISO-10303-21;
