ISO-10303-21;
HEADER;
/* Generated by software containing ST-Developer
 * from STEP Tools, Inc. (www.steptools.com) 
 */
/* OPTION: using custom schema-name function */

FILE_DESCRIPTION(
/* description */ (''),
/* implementation_level */ '2;1');

FILE_NAME(
/* name */ 'S4651-060E2R050.0Z5AC_Basic.stp',
/* time_stamp */ '2024-07-12T09:43:07+05:00',
/* author */ (''),
/* organization */ (''),
/* preprocessor_version */ 'ST-DEVELOPER v16.7',
/* originating_system */ 'SIEMENS PLM Software NX 12.0',
/* authorisation */ '');

FILE_SCHEMA (('AUTOMOTIVE_DESIGN { 1 0 10303 214 3 1 1 1 }'));
ENDSEC;

DATA;
#10=CONSTRUCTIVE_GEOMETRY_REPRESENTATION_RELATIONSHIP(
'supplemental geometry','',#34,#11);
#11=CONSTRUCTIVE_GEOMETRY_REPRESENTATION('supplemental geometry',(#219,
#220,#221),#403);
#12=GEOMETRICALLY_BOUNDED_WIREFRAME_SHAPE_REPRESENTATION(
'inpu4210730Chp6u-None',(#35),#403);
#13=PROPERTY_DEFINITION_REPRESENTATION(#17,#15);
#14=PROPERTY_DEFINITION_REPRESENTATION(#18,#16);
#15=REPRESENTATION('',(#19),#403);
#16=REPRESENTATION('',(#20),#403);
#17=PROPERTY_DEFINITION('pmi validation property','',#25);
#18=PROPERTY_DEFINITION('pmi validation property','',#25);
#19=VALUE_REPRESENTATION_ITEM('number of annotations',COUNT_MEASURE(0.));
#20=VALUE_REPRESENTATION_ITEM('number of views',COUNT_MEASURE(0.));
#21=SHAPE_REPRESENTATION_RELATIONSHIP('None',
'relationship between inpu4210730Chp6u-None and inpu4210730Chp6u-None',
#34,#23);
#22=SHAPE_REPRESENTATION_RELATIONSHIP('None',
'relationship between inpu4210730Chp6u-None and inpu4210730Chp6u-None',
#34,#12);
#23=ADVANCED_BREP_SHAPE_REPRESENTATION('inpu4210730Chp6u-None',(#46,#47),
#403);
#24=SHAPE_DEFINITION_REPRESENTATION(#25,#34);
#25=PRODUCT_DEFINITION_SHAPE('','',#26);
#26=PRODUCT_DEFINITION(' ','',#28,#27);
#27=PRODUCT_DEFINITION_CONTEXT('part definition',#33,'design');
#28=PRODUCT_DEFINITION_FORMATION_WITH_SPECIFIED_SOURCE(' ',' ',#30,
 .NOT_KNOWN.);
#29=PRODUCT_RELATED_PRODUCT_CATEGORY('part','',(#30));
#30=PRODUCT('inpu4210730Chp6u','inpu4210730Chp6u',' ',(#31));
#31=PRODUCT_CONTEXT(' ',#33,'mechanical');
#32=APPLICATION_PROTOCOL_DEFINITION('international standard',
'automotive_design',2010,#33);
#33=APPLICATION_CONTEXT(
'core data for automotive mechanical design processes');
#34=SHAPE_REPRESENTATION('inpu4210730Chp6u-None',(#218),#403);
#35=GEOMETRIC_CURVE_SET('None',(#300,#301,#302,#303,#184));
#36=SURFACE_STYLE_USAGE(.BOTH.,#38);
#37=SURFACE_STYLE_USAGE(.BOTH.,#39);
#38=SURFACE_SIDE_STYLE('',(#40));
#39=SURFACE_SIDE_STYLE('',(#41));
#40=SURFACE_STYLE_FILL_AREA(#42);
#41=SURFACE_STYLE_FILL_AREA(#43);
#42=FILL_AREA_STYLE('',(#44));
#43=FILL_AREA_STYLE('',(#45));
#44=FILL_AREA_STYLE_COLOUR('',#216);
#45=FILL_AREA_STYLE_COLOUR('',#217);
#46=MANIFOLD_SOLID_BREP('NOCUT',#48);
#47=MANIFOLD_SOLID_BREP('CUT',#49);
#48=CLOSED_SHELL('',(#65,#66,#67,#68,#69,#70,#71));
#49=CLOSED_SHELL('',(#72,#73,#74,#75,#76,#77));
#50=TOROIDAL_SURFACE('',#231,7.84999999999999,5.);
#51=TOROIDAL_SURFACE('',#238,2.5,0.5);
#52=CYLINDRICAL_SURFACE('',#229,2.84999999999999);
#53=CYLINDRICAL_SURFACE('',#232,3.);
#54=CYLINDRICAL_SURFACE('',#243,0.3);
#55=(
BOUNDED_SURFACE()
B_SPLINE_SURFACE(3,3,((#350,#351,#352,#353,#354,#355,#356),(#357,#358,#359,
#360,#361,#362,#363),(#364,#365,#366,#367,#368,#369,#370),(#371,#372,#373,
#374,#375,#376,#377)),.UNSPECIFIED.,.F.,.T.,.F.)
B_SPLINE_SURFACE_WITH_KNOTS((4,4),(1,3,3,3,1),(0.,1.),(-0.5,0.,0.5,1.,1.5),
 .UNSPECIFIED.)
GEOMETRIC_REPRESENTATION_ITEM()
RATIONAL_B_SPLINE_SURFACE(((1.,0.333333333333333,0.333333333333333,1.,0.333333333333333,
0.333333333333333,1.),(0.987486233113658,0.329162077704553,0.329162077704553,
0.987486233113658,0.329162077704553,0.329162077704553,0.987486233113658),
(0.987486233113658,0.329162077704553,0.329162077704553,0.987486233113658,
0.329162077704553,0.329162077704553,0.987486233113658),(1.,0.333333333333333,
0.333333333333333,1.,0.333333333333333,0.333333333333333,1.)))
REPRESENTATION_ITEM('')
SURFACE()
);
#56=PLANE('',#225);
#57=PLANE('',#233);
#58=PLANE('',#236);
#59=PLANE('',#241);
#60=PLANE('',#244);
#61=FACE_OUTER_BOUND('',#100,.T.);
#62=FACE_OUTER_BOUND('',#109,.T.);
#63=FACE_OUTER_BOUND('',#116,.T.);
#64=FACE_OUTER_BOUND('',#119,.T.);
#65=ADVANCED_FACE('',(#80,#81),#78,.T.);
#66=ADVANCED_FACE('',(#61),#56,.T.);
#67=ADVANCED_FACE('',(#82,#83),#55,.T.);
#68=ADVANCED_FACE('',(#84,#85),#52,.T.);
#69=ADVANCED_FACE('',(#86,#87),#50,.F.);
#70=ADVANCED_FACE('',(#88,#89),#53,.T.);
#71=ADVANCED_FACE('',(#62),#57,.T.);
#72=ADVANCED_FACE('',(#90,#91),#58,.T.);
#73=ADVANCED_FACE('',(#92,#93),#51,.T.);
#74=ADVANCED_FACE('',(#94,#95),#79,.T.);
#75=ADVANCED_FACE('',(#63),#59,.F.);
#76=ADVANCED_FACE('',(#96,#97),#54,.F.);
#77=ADVANCED_FACE('',(#64),#60,.T.);
#78=CONICAL_SURFACE('',#224,3.,45.);
#79=CONICAL_SURFACE('',#240,2.99999999809614,0.00499999999999934);
#80=FACE_BOUND('',#98,.T.);
#81=FACE_BOUND('',#99,.T.);
#82=FACE_BOUND('',#101,.T.);
#83=FACE_BOUND('',#102,.T.);
#84=FACE_BOUND('',#103,.T.);
#85=FACE_BOUND('',#104,.T.);
#86=FACE_BOUND('',#105,.T.);
#87=FACE_BOUND('',#106,.T.);
#88=FACE_BOUND('',#107,.T.);
#89=FACE_BOUND('',#108,.T.);
#90=FACE_BOUND('',#110,.T.);
#91=FACE_BOUND('',#111,.T.);
#92=FACE_BOUND('',#112,.T.);
#93=FACE_BOUND('',#113,.T.);
#94=FACE_BOUND('',#114,.T.);
#95=FACE_BOUND('',#115,.T.);
#96=FACE_BOUND('',#117,.T.);
#97=FACE_BOUND('',#118,.T.);
#98=EDGE_LOOP('',(#120));
#99=EDGE_LOOP('',(#121));
#100=EDGE_LOOP('',(#122));
#101=EDGE_LOOP('',(#123));
#102=EDGE_LOOP('',(#124));
#103=EDGE_LOOP('',(#125));
#104=EDGE_LOOP('',(#126));
#105=EDGE_LOOP('',(#127));
#106=EDGE_LOOP('',(#128));
#107=EDGE_LOOP('',(#129));
#108=EDGE_LOOP('',(#130));
#109=EDGE_LOOP('',(#131));
#110=EDGE_LOOP('',(#132));
#111=EDGE_LOOP('',(#133));
#112=EDGE_LOOP('',(#134));
#113=EDGE_LOOP('',(#135));
#114=EDGE_LOOP('',(#136));
#115=EDGE_LOOP('',(#137));
#116=EDGE_LOOP('',(#138));
#117=EDGE_LOOP('',(#139));
#118=EDGE_LOOP('',(#140));
#119=EDGE_LOOP('',(#141));
#120=ORIENTED_EDGE('',*,*,#153,.T.);
#121=ORIENTED_EDGE('',*,*,#154,.F.);
#122=ORIENTED_EDGE('',*,*,#153,.F.);
#123=ORIENTED_EDGE('',*,*,#155,.T.);
#124=ORIENTED_EDGE('',*,*,#156,.F.);
#125=ORIENTED_EDGE('',*,*,#157,.T.);
#126=ORIENTED_EDGE('',*,*,#155,.F.);
#127=ORIENTED_EDGE('',*,*,#158,.T.);
#128=ORIENTED_EDGE('',*,*,#157,.F.);
#129=ORIENTED_EDGE('',*,*,#154,.T.);
#130=ORIENTED_EDGE('',*,*,#158,.F.);
#131=ORIENTED_EDGE('',*,*,#156,.T.);
#132=ORIENTED_EDGE('',*,*,#159,.F.);
#133=ORIENTED_EDGE('',*,*,#160,.T.);
#134=ORIENTED_EDGE('',*,*,#161,.T.);
#135=ORIENTED_EDGE('',*,*,#160,.F.);
#136=ORIENTED_EDGE('',*,*,#162,.F.);
#137=ORIENTED_EDGE('',*,*,#161,.F.);
#138=ORIENTED_EDGE('',*,*,#162,.T.);
#139=ORIENTED_EDGE('',*,*,#163,.T.);
#140=ORIENTED_EDGE('',*,*,#159,.T.);
#141=ORIENTED_EDGE('',*,*,#163,.F.);
#142=VERTEX_POINT('',#341);
#143=VERTEX_POINT('',#343);
#144=VERTEX_POINT('',#347);
#145=VERTEX_POINT('',#349);
#146=VERTEX_POINT('',#379);
#147=VERTEX_POINT('',#382);
#148=VERTEX_POINT('',#387);
#149=VERTEX_POINT('',#389);
#150=VERTEX_POINT('',#392);
#151=VERTEX_POINT('',#395);
#152=VERTEX_POINT('',#399);
#153=EDGE_CURVE('',#142,#142,#164,.T.);
#154=EDGE_CURVE('',#143,#143,#165,.T.);
#155=EDGE_CURVE('',#144,#144,#166,.T.);
#156=EDGE_CURVE('',#145,#145,#167,.T.);
#157=EDGE_CURVE('',#146,#146,#168,.T.);
#158=EDGE_CURVE('',#147,#147,#169,.T.);
#159=EDGE_CURVE('',#148,#148,#170,.T.);
#160=EDGE_CURVE('',#149,#149,#171,.T.);
#161=EDGE_CURVE('',#150,#150,#172,.T.);
#162=EDGE_CURVE('',#151,#151,#173,.T.);
#163=EDGE_CURVE('',#152,#152,#174,.T.);
#164=CIRCLE('',#222,2.5);
#165=CIRCLE('',#223,3.);
#166=CIRCLE('',#226,2.84999999999999);
#167=CIRCLE('',#227,2.99882190465577);
#168=CIRCLE('',#228,2.84999999999999);
#169=CIRCLE('',#230,3.);
#170=CIRCLE('',#234,0.3);
#171=CIRCLE('',#235,2.5);
#172=CIRCLE('',#237,2.99999999809614);
#173=CIRCLE('',#239,2.99882190465577);
#174=CIRCLE('',#242,0.3);
#175=CURVE_STYLE('',#180,POSITIVE_LENGTH_MEASURE(0.18),#179);
#176=CURVE_STYLE('',#181,POSITIVE_LENGTH_MEASURE(0.18),#215);
#177=CURVE_STYLE('',#182,POSITIVE_LENGTH_MEASURE(0.18),#215);
#178=CURVE_STYLE('',#183,POSITIVE_LENGTH_MEASURE(0.18),#215);
#179=DRAUGHTING_PRE_DEFINED_COLOUR('blue');
#180=DRAUGHTING_PRE_DEFINED_CURVE_FONT('continuous');
#181=DRAUGHTING_PRE_DEFINED_CURVE_FONT('continuous');
#182=DRAUGHTING_PRE_DEFINED_CURVE_FONT('continuous');
#183=DRAUGHTING_PRE_DEFINED_CURVE_FONT('continuous');
#184=B_SPLINE_CURVE_WITH_KNOTS('CUTTING PART LINE',3,(#304,#305,#306,#307,
#308,#309,#310,#311,#312,#313,#314,#315,#316,#317,#318,#319,#320,#321,#322,
#323,#324,#325,#326,#327,#328,#329,#330,#331,#332,#333,#334,#335,#336),
 .UNSPECIFIED.,.T.,.F.,(1,3,3,1,1,1,1,1,1,1,1,1,1,1,1,1,1,1,1,1,1,1,1,1,
1,1,3,3,1),(-0.088763982,0.,0.4143946478,0.45139416995,0.487931198073125,
0.4883936921,0.489120216378125,0.48984674065625,0.4912997892125,0.49275283776875,
0.494205886325,0.49565893488125,0.4971119834375,0.49856503199375,0.50001808055,
0.50147112910625,0.5029241776625,0.50437722621875,0.505830274775,0.50728332333125,
0.5087363718875,0.51018942044375,0.510915944721875,0.511642469,0.512017087952187,
0.7114392435,0.911236018,1.,1.4143946478),.UNSPECIFIED.);
#185=PRESENTATION_LAYER_ASSIGNMENT('1','Layer 1',(#300,#301,#302,#303,#184,
#219,#220,#221,#46,#47));
#186=STYLED_ITEM('',(#196),#300);
#187=STYLED_ITEM('',(#197),#301);
#188=STYLED_ITEM('',(#198),#302);
#189=STYLED_ITEM('',(#199),#303);
#190=STYLED_ITEM('',(#200),#184);
#191=STYLED_ITEM('',(#201),#219);
#192=STYLED_ITEM('',(#202),#220);
#193=STYLED_ITEM('',(#203),#221);
#194=STYLED_ITEM('',(#204),#46);
#195=STYLED_ITEM('',(#205),#47);
#196=PRESENTATION_STYLE_ASSIGNMENT((#206));
#197=PRESENTATION_STYLE_ASSIGNMENT((#207));
#198=PRESENTATION_STYLE_ASSIGNMENT((#208));
#199=PRESENTATION_STYLE_ASSIGNMENT((#209));
#200=PRESENTATION_STYLE_ASSIGNMENT((#175));
#201=PRESENTATION_STYLE_ASSIGNMENT((#176));
#202=PRESENTATION_STYLE_ASSIGNMENT((#177));
#203=PRESENTATION_STYLE_ASSIGNMENT((#178));
#204=PRESENTATION_STYLE_ASSIGNMENT((#36));
#205=PRESENTATION_STYLE_ASSIGNMENT((#37));
#206=POINT_STYLE('',#210,POSITIVE_LENGTH_MEASURE(3.),#214);
#207=POINT_STYLE('',#211,POSITIVE_LENGTH_MEASURE(3.),#215);
#208=POINT_STYLE('',#212,POSITIVE_LENGTH_MEASURE(3.),#215);
#209=POINT_STYLE('',#213,POSITIVE_LENGTH_MEASURE(3.),#215);
#210=PRE_DEFINED_POINT_MARKER_SYMBOL('plus');
#211=PRE_DEFINED_POINT_MARKER_SYMBOL('plus');
#212=PRE_DEFINED_POINT_MARKER_SYMBOL('plus');
#213=PRE_DEFINED_POINT_MARKER_SYMBOL('plus');
#214=COLOUR_RGB('Pale Royal',0.219592584115358,0.470572976272221,0.752941176470588);
#215=COLOUR_RGB('Pale Maroon',0.811749446860456,0.603921568627451,0.611749446860456);
#216=COLOUR_RGB('Medium Gray',0.490196078431373,0.490196078431373,0.490196078431373);
#217=COLOUR_RGB('Light Gray',0.8,0.8,0.8);
#218=AXIS2_PLACEMENT_3D('',#299,#245,#246);
#219=AXIS2_PLACEMENT_3D('MCS',#337,#247,#248);
#220=AXIS2_PLACEMENT_3D('CIP',#338,#249,#250);
#221=AXIS2_PLACEMENT_3D('PCS',#339,#251,#252);
#222=AXIS2_PLACEMENT_3D('',#340,#253,#254);
#223=AXIS2_PLACEMENT_3D('',#342,#255,#256);
#224=AXIS2_PLACEMENT_3D('',#344,#257,#258);
#225=AXIS2_PLACEMENT_3D('',#345,#259,#260);
#226=AXIS2_PLACEMENT_3D('',#346,#261,#262);
#227=AXIS2_PLACEMENT_3D('',#348,#263,#264);
#228=AXIS2_PLACEMENT_3D('',#378,#265,#266);
#229=AXIS2_PLACEMENT_3D('',#380,#267,#268);
#230=AXIS2_PLACEMENT_3D('',#381,#269,#270);
#231=AXIS2_PLACEMENT_3D('',#383,#271,#272);
#232=AXIS2_PLACEMENT_3D('',#384,#273,#274);
#233=AXIS2_PLACEMENT_3D('',#385,#275,#276);
#234=AXIS2_PLACEMENT_3D('',#386,#277,#278);
#235=AXIS2_PLACEMENT_3D('',#388,#279,#280);
#236=AXIS2_PLACEMENT_3D('',#390,#281,#282);
#237=AXIS2_PLACEMENT_3D('',#391,#283,#284);
#238=AXIS2_PLACEMENT_3D('',#393,#285,#286);
#239=AXIS2_PLACEMENT_3D('',#394,#287,#288);
#240=AXIS2_PLACEMENT_3D('',#396,#289,#290);
#241=AXIS2_PLACEMENT_3D('',#397,#291,#292);
#242=AXIS2_PLACEMENT_3D('',#398,#293,#294);
#243=AXIS2_PLACEMENT_3D('',#400,#295,#296);
#244=AXIS2_PLACEMENT_3D('',#401,#297,#298);
#245=DIRECTION('',(0.,0.,1.));
#246=DIRECTION('',(1.,0.,0.));
#247=DIRECTION('',(0.,0.,1.));
#248=DIRECTION('',(1.,0.,0.));
#249=DIRECTION('',(0.,0.,1.));
#250=DIRECTION('',(1.,0.,0.));
#251=DIRECTION('',(0.,0.,1.));
#252=DIRECTION('',(1.,0.,0.));
#253=DIRECTION('',(0.,0.,-1.));
#254=DIRECTION('',(-1.,0.,0.));
#255=DIRECTION('',(0.,0.,-1.));
#256=DIRECTION('',(-1.,0.,0.));
#257=DIRECTION('',(0.,0.,-1.));
#258=DIRECTION('',(1.,0.,5.49127321657663E-17));
#259=DIRECTION('',(0.,0.,1.));
#260=DIRECTION('',(-1.,0.,0.));
#261=DIRECTION('',(0.,0.,-1.));
#262=DIRECTION('',(-1.,0.,0.));
#263=DIRECTION('',(0.,0.,-1.));
#264=DIRECTION('',(-1.,0.,0.));
#265=DIRECTION('',(0.,0.,-1.));
#266=DIRECTION('',(-1.,0.,0.));
#267=DIRECTION('',(0.,0.,-1.));
#268=DIRECTION('',(1.,0.,0.));
#269=DIRECTION('',(0.,0.,-1.));
#270=DIRECTION('',(-1.,0.,0.));
#271=DIRECTION('',(0.,0.,-1.));
#272=DIRECTION('',(1.,0.,0.));
#273=DIRECTION('',(0.,0.,-1.));
#274=DIRECTION('',(1.,0.,0.));
#275=DIRECTION('',(0.,0.,-1.));
#276=DIRECTION('',(1.,0.,0.));
#277=DIRECTION('',(0.,0.,-1.));
#278=DIRECTION('',(1.,1.22464679914735E-16,0.));
#279=DIRECTION('',(0.,0.,-1.));
#280=DIRECTION('',(-1.,0.,0.));
#281=DIRECTION('',(0.,0.,-1.));
#282=DIRECTION('',(1.,0.,0.));
#283=DIRECTION('',(0.,0.,-1.));
#284=DIRECTION('',(-1.,0.,0.));
#285=DIRECTION('',(0.,0.,-1.));
#286=DIRECTION('',(1.,0.,0.));
#287=DIRECTION('',(0.,0.,1.));
#288=DIRECTION('',(-1.,0.,0.));
#289=DIRECTION('',(0.,0.,-1.));
#290=DIRECTION('',(1.,0.,1.79806802988955E-14));
#291=DIRECTION('',(0.,0.,-1.));
#292=DIRECTION('',(1.,0.,0.));
#293=DIRECTION('',(0.,0.,1.));
#294=DIRECTION('',(1.,1.22464679914735E-16,0.));
#295=DIRECTION('',(0.,0.,-1.));
#296=DIRECTION('',(1.,0.,0.));
#297=DIRECTION('',(0.,0.,-1.));
#298=DIRECTION('',(1.,0.,0.));
#299=CARTESIAN_POINT('',(0.,0.,0.));
#300=CARTESIAN_POINT('CRP',(-3.,0.,-57.));
#301=CARTESIAN_POINT('',(0.,0.,-36.));
#302=CARTESIAN_POINT('',(0.,0.,-57.));
#303=CARTESIAN_POINT('',(0.,0.,0.));
#304=CARTESIAN_POINT('',(0.,0.,-43.));
#305=CARTESIAN_POINT('',(0.,0.,-47.6666666666667));
#306=CARTESIAN_POINT('',(0.,0.,-52.3333333333333));
#307=CARTESIAN_POINT('',(0.,0.,-57.));
#308=CARTESIAN_POINT('',(-0.416666666666667,0.,-57.));
#309=CARTESIAN_POINT('',(-1.24479166666667,0.,-57.));
#310=CARTESIAN_POINT('',(-2.078125,0.,-57.));
#311=CARTESIAN_POINT('',(-2.50297335305464,0.,-57.0000639708116));
#312=CARTESIAN_POINT('',(-2.52454504978184,0.,-56.999598037207));
#313=CARTESIAN_POINT('',(-2.55719296520794,0.,-56.9971901328216));
#314=CARTESIAN_POINT('',(-2.59770735705738,0.,-56.9911800527905));
#315=CARTESIAN_POINT('',(-2.64538354705734,0.,-56.9792370967314));
#316=CARTESIAN_POINT('',(-2.69165945928933,0.,-56.9626783154062));
#317=CARTESIAN_POINT('',(-2.7360893802863,0.,-56.9416631919853));
#318=CARTESIAN_POINT('',(-2.7782453802296,0.,-56.9163941405241));
#319=CARTESIAN_POINT('',(-2.8177214261567,0.,-56.8871145386059));
#320=CARTESIAN_POINT('',(-2.85413730294998,0.,-56.8541064000311));
#321=CARTESIAN_POINT('',(-2.88714226353424,0.,-56.8176876428593));
#322=CARTESIAN_POINT('',(-2.91641842041401,0.,-56.7782090419483));
#323=CARTESIAN_POINT('',(-2.94168379297781,0.,-56.7360508370244));
#324=CARTESIAN_POINT('',(-2.96269503908343,0.,-56.6916190822699));
#325=CARTESIAN_POINT('',(-2.97924978201625,0.,-56.6453417251764));
#326=CARTESIAN_POINT('',(-2.99118857750278,0.,-56.5976644931108));
#327=CARTESIAN_POINT('',(-2.99719512196164,0.,-56.5571495769095));
#328=CARTESIAN_POINT('',(-2.99960017726557,0.,-56.5245014515195));
#329=CARTESIAN_POINT('',(-3.00005216011846,0.,-56.5039193120525));
#330=CARTESIAN_POINT('',(-2.99980328103521,0.,-54.2457449026094));
#331=CARTESIAN_POINT('',(-2.99941058322176,0.,-49.7457594470198));
#332=CARTESIAN_POINT('',(-2.9990182535625,0.,-45.2499927277948));
#333=CARTESIAN_POINT('',(-2.99882190465577,0.,-43.));
#334=CARTESIAN_POINT('',(-1.99921460310385,0.,-43.));
#335=CARTESIAN_POINT('',(-0.999607301551924,0.,-43.));
#336=CARTESIAN_POINT('',(0.,0.,-43.));
#337=CARTESIAN_POINT('',(0.,0.,-36.));
#338=CARTESIAN_POINT('',(0.,0.,-57.));
#339=CARTESIAN_POINT('',(0.,0.,0.));
#340=CARTESIAN_POINT('',(0.,0.,0.));
#341=CARTESIAN_POINT('',(-2.5,0.,0.));
#342=CARTESIAN_POINT('',(0.,0.,-0.5));
#343=CARTESIAN_POINT('',(-3.,0.,-0.5));
#344=CARTESIAN_POINT('',(0.,0.,-0.5));
#345=CARTESIAN_POINT('',(2.5,0.,5.08080204713085E-17));
#346=CARTESIAN_POINT('',(0.,0.,-42.2431146360127));
#347=CARTESIAN_POINT('',(-2.84999999999999,0.,-42.2431146360127));
#348=CARTESIAN_POINT('',(0.,0.,-43.));
#349=CARTESIAN_POINT('',(-2.99882190465577,0.,-43.));
#350=CARTESIAN_POINT('',(-2.99882190465578,0.,-43.));
#351=CARTESIAN_POINT('',(-2.99882190465578,5.99764380931156,-43.));
#352=CARTESIAN_POINT('',(2.99882190465578,5.99764380931156,-43.));
#353=CARTESIAN_POINT('',(2.99882190465578,0.,-43.));
#354=CARTESIAN_POINT('',(2.99882190465578,-5.99764380931156,-43.));
#355=CARTESIAN_POINT('',(-2.99882190465578,-5.99764380931156,-43.));
#356=CARTESIAN_POINT('',(-2.99882190465578,0.,-43.));
#357=CARTESIAN_POINT('',(-2.99879918184278,0.,-42.7396157438936));
#358=CARTESIAN_POINT('',(-2.99879918184278,5.99759836368556,-42.7396157438936));
#359=CARTESIAN_POINT('',(2.99879918184278,5.99759836368556,-42.7396157438936));
#360=CARTESIAN_POINT('',(2.99879918184278,0.,-42.7396157438936));
#361=CARTESIAN_POINT('',(2.99879918184278,-5.99759836368556,-42.7396157438936));
#362=CARTESIAN_POINT('',(-2.99879918184278,-5.99759836368556,-42.7396157438936));
#363=CARTESIAN_POINT('',(-2.99879918184278,0.,-42.7396157438936));
#364=CARTESIAN_POINT('',(-2.94856323941803,0.,-42.4841234515772));
#365=CARTESIAN_POINT('',(-2.94856323941803,5.89712647883606,-42.4841234515772));
#366=CARTESIAN_POINT('',(2.94856323941803,5.89712647883606,-42.4841234515772));
#367=CARTESIAN_POINT('',(2.94856323941803,0.,-42.4841234515772));
#368=CARTESIAN_POINT('',(2.94856323941803,-5.89712647883606,-42.4841234515772));
#369=CARTESIAN_POINT('',(-2.94856323941803,-5.89712647883606,-42.4841234515772));
#370=CARTESIAN_POINT('',(-2.94856323941803,0.,-42.4841234515772));
#371=CARTESIAN_POINT('',(-2.84999999999999,0.,-42.2431146360127));
#372=CARTESIAN_POINT('',(-2.84999999999999,5.69999999999997,-42.2431146360127));
#373=CARTESIAN_POINT('',(2.84999999999999,5.69999999999997,-42.2431146360127));
#374=CARTESIAN_POINT('',(2.84999999999999,0.,-42.2431146360127));
#375=CARTESIAN_POINT('',(2.84999999999999,-5.69999999999997,-42.2431146360127));
#376=CARTESIAN_POINT('',(-2.84999999999999,-5.69999999999997,-42.2431146360127));
#377=CARTESIAN_POINT('',(-2.84999999999999,0.,-42.2431146360127));
#378=CARTESIAN_POINT('',(0.,0.,-37.));
#379=CARTESIAN_POINT('',(-2.84999999999999,0.,-37.));
#380=CARTESIAN_POINT('',(0.,0.,-36.));
#381=CARTESIAN_POINT('',(0.,0.,-35.7844754218856));
#382=CARTESIAN_POINT('',(-3.,0.,-35.7844754218856));
#383=CARTESIAN_POINT('',(0.,0.,-37.));
#384=CARTESIAN_POINT('',(0.,0.,-36.));
#385=CARTESIAN_POINT('',(0.,0.,-43.));
#386=CARTESIAN_POINT('',(0.,0.,-57.));
#387=CARTESIAN_POINT('',(0.3,3.67394039744206E-17,-57.));
#388=CARTESIAN_POINT('',(0.,0.,-57.));
#389=CARTESIAN_POINT('',(-2.5,0.,-57.));
#390=CARTESIAN_POINT('',(-4.88498130835069E-15,0.,-57.));
#391=CARTESIAN_POINT('',(0.,0.,-56.4999563667688));
#392=CARTESIAN_POINT('',(-2.99999999809614,0.,-56.4999563667688));
#393=CARTESIAN_POINT('',(0.,0.,-56.5));
#394=CARTESIAN_POINT('',(0.,0.,-43.));
#395=CARTESIAN_POINT('',(-2.99882190465577,0.,-43.));
#396=CARTESIAN_POINT('',(0.,0.,-56.4999563667688));
#397=CARTESIAN_POINT('',(0.,0.,-43.));
#398=CARTESIAN_POINT('',(0.,0.,-56.9));
#399=CARTESIAN_POINT('',(0.3,3.67394039744206E-17,-56.9));
#400=CARTESIAN_POINT('',(0.,0.,-56.9));
#401=CARTESIAN_POINT('',(0.,0.,-56.9));
#402=MECHANICAL_DESIGN_GEOMETRIC_PRESENTATION_REPRESENTATION('',(#186,#187,
#188,#189,#190,#191,#192,#193,#194,#195),#403);
#403=(
GEOMETRIC_REPRESENTATION_CONTEXT(3)
GLOBAL_UNCERTAINTY_ASSIGNED_CONTEXT((#404))
GLOBAL_UNIT_ASSIGNED_CONTEXT((#410,#406,#405))
REPRESENTATION_CONTEXT('S4651-060E2R050','TOP_LEVEL_ASSEMBLY_PART')
);
#404=UNCERTAINTY_MEASURE_WITH_UNIT(LENGTH_MEASURE(0.0254),#410,
'DISTANCE_ACCURACY_VALUE','Maximum Tolerance applied to model');
#405=(
NAMED_UNIT(*)
SI_UNIT($,.STERADIAN.)
SOLID_ANGLE_UNIT()
);
#406=(
CONVERSION_BASED_UNIT('DEGREE',#408)
NAMED_UNIT(#407)
PLANE_ANGLE_UNIT()
);
#407=DIMENSIONAL_EXPONENTS(0.,0.,0.,0.,0.,0.,0.);
#408=PLANE_ANGLE_MEASURE_WITH_UNIT(PLANE_ANGLE_MEASURE(0.0174532925),#409);
#409=(
NAMED_UNIT(*)
PLANE_ANGLE_UNIT()
SI_UNIT($,.RADIAN.)
);
#410=(
LENGTH_UNIT()
NAMED_UNIT(*)
SI_UNIT(.MILLI.,.METRE.)
);
ENDSEC;
END-ISO-10303-21;
