ISO-10303-21;
HEADER;
/* Generated by software containing ST-Developer
 * from STEP Tools, Inc. (www.steptools.com) 
 */
/* OPTION: using custom schema-name function */

FILE_DESCRIPTION(
/* description */ (''),
/* implementation_level */ '2;1');

FILE_NAME(
/* name */ 'S4651-060E2R100.3Z5AC_Basic.stp',
/* time_stamp */ '2024-07-12T09:46:40+05:00',
/* author */ (''),
/* organization */ (''),
/* preprocessor_version */ 'ST-DEVELOPER v16.7',
/* originating_system */ 'SIEMENS PLM Software NX 12.0',
/* authorisation */ '');

FILE_SCHEMA (('AUTOMOTIVE_DESIGN { 1 0 10303 214 3 1 1 1 }'));
ENDSEC;

DATA;
#10=CONSTRUCTIVE_GEOMETRY_REPRESENTATION_RELATIONSHIP(
'supplemental geometry','',#34,#11);
#11=CONSTRUCTIVE_GEOMETRY_REPRESENTATION('supplemental geometry',(#197,
#198,#199),#363);
#12=GEOMETRICALLY_BOUNDED_WIREFRAME_SHAPE_REPRESENTATION(
'inpu4210730Chp8e-None',(#35),#363);
#13=PROPERTY_DEFINITION_REPRESENTATION(#17,#15);
#14=PROPERTY_DEFINITION_REPRESENTATION(#18,#16);
#15=REPRESENTATION('',(#19),#363);
#16=REPRESENTATION('',(#20),#363);
#17=PROPERTY_DEFINITION('pmi validation property','',#25);
#18=PROPERTY_DEFINITION('pmi validation property','',#25);
#19=VALUE_REPRESENTATION_ITEM('number of annotations',COUNT_MEASURE(0.));
#20=VALUE_REPRESENTATION_ITEM('number of views',COUNT_MEASURE(0.));
#21=SHAPE_REPRESENTATION_RELATIONSHIP('None',
'relationship between inpu4210730Chp8e-None and inpu4210730Chp8e-None',
#34,#23);
#22=SHAPE_REPRESENTATION_RELATIONSHIP('None',
'relationship between inpu4210730Chp8e-None and inpu4210730Chp8e-None',
#34,#12);
#23=ADVANCED_BREP_SHAPE_REPRESENTATION('inpu4210730Chp8e-None',(#46,#47),
#363);
#24=SHAPE_DEFINITION_REPRESENTATION(#25,#34);
#25=PRODUCT_DEFINITION_SHAPE('','',#26);
#26=PRODUCT_DEFINITION(' ','',#28,#27);
#27=PRODUCT_DEFINITION_CONTEXT('part definition',#33,'design');
#28=PRODUCT_DEFINITION_FORMATION_WITH_SPECIFIED_SOURCE(' ',' ',#30,
 .NOT_KNOWN.);
#29=PRODUCT_RELATED_PRODUCT_CATEGORY('part','',(#30));
#30=PRODUCT('inpu4210730Chp8e','inpu4210730Chp8e',' ',(#31));
#31=PRODUCT_CONTEXT(' ',#33,'mechanical');
#32=APPLICATION_PROTOCOL_DEFINITION('international standard',
'automotive_design',2010,#33);
#33=APPLICATION_CONTEXT(
'core data for automotive mechanical design processes');
#34=SHAPE_REPRESENTATION('inpu4210730Chp8e-None',(#196),#363);
#35=GEOMETRIC_CURVE_SET('None',(#266,#267,#268,#269,#162));
#36=SURFACE_STYLE_USAGE(.BOTH.,#38);
#37=SURFACE_STYLE_USAGE(.BOTH.,#39);
#38=SURFACE_SIDE_STYLE('',(#40));
#39=SURFACE_SIDE_STYLE('',(#41));
#40=SURFACE_STYLE_FILL_AREA(#42);
#41=SURFACE_STYLE_FILL_AREA(#43);
#42=FILL_AREA_STYLE('',(#44));
#43=FILL_AREA_STYLE('',(#45));
#44=FILL_AREA_STYLE_COLOUR('',#194);
#45=FILL_AREA_STYLE_COLOUR('',#195);
#46=MANIFOLD_SOLID_BREP('NOCUT',#48);
#47=MANIFOLD_SOLID_BREP('CUT',#49);
#48=CLOSED_SHELL('',(#63,#64,#65,#66,#67,#68,#69));
#49=CLOSED_SHELL('',(#70,#71,#72,#73));
#50=TOROIDAL_SURFACE('',#209,7.84999999999999,5.);
#51=TOROIDAL_SURFACE('',#215,2.,1.);
#52=CYLINDRICAL_SURFACE('',#207,2.84999999999999);
#53=CYLINDRICAL_SURFACE('',#210,3.);
#54=(
BOUNDED_SURFACE()
B_SPLINE_SURFACE(3,3,((#316,#317,#318,#319,#320,#321,#322),(#323,#324,#325,
#326,#327,#328,#329),(#330,#331,#332,#333,#334,#335,#336),(#337,#338,#339,
#340,#341,#342,#343)),.UNSPECIFIED.,.F.,.T.,.F.)
B_SPLINE_SURFACE_WITH_KNOTS((4,4),(1,3,3,3,1),(0.,1.),(-0.5,0.,0.5,1.,1.5),
 .UNSPECIFIED.)
GEOMETRIC_REPRESENTATION_ITEM()
RATIONAL_B_SPLINE_SURFACE(((1.,0.333333333333333,0.333333333333333,1.,0.333333333333333,
0.333333333333333,1.),(0.987482528071929,0.329160842690643,0.329160842690643,
0.987482528071929,0.329160842690643,0.329160842690643,0.987482528071929),
(0.987482528071929,0.329160842690643,0.329160842690643,0.987482528071929,
0.329160842690643,0.329160842690643,0.987482528071929),(1.,0.333333333333333,
0.333333333333333,1.,0.333333333333333,0.333333333333333,1.)))
REPRESENTATION_ITEM('')
SURFACE()
);
#55=PLANE('',#203);
#56=PLANE('',#211);
#57=PLANE('',#213);
#58=PLANE('',#218);
#59=FACE_OUTER_BOUND('',#92,.T.);
#60=FACE_OUTER_BOUND('',#101,.T.);
#61=FACE_OUTER_BOUND('',#102,.T.);
#62=FACE_OUTER_BOUND('',#107,.T.);
#63=ADVANCED_FACE('',(#76,#77),#74,.T.);
#64=ADVANCED_FACE('',(#59),#55,.T.);
#65=ADVANCED_FACE('',(#78,#79),#54,.T.);
#66=ADVANCED_FACE('',(#80,#81),#52,.T.);
#67=ADVANCED_FACE('',(#82,#83),#50,.F.);
#68=ADVANCED_FACE('',(#84,#85),#53,.T.);
#69=ADVANCED_FACE('',(#60),#56,.T.);
#70=ADVANCED_FACE('',(#61),#57,.T.);
#71=ADVANCED_FACE('',(#86,#87),#51,.T.);
#72=ADVANCED_FACE('',(#88,#89),#75,.T.);
#73=ADVANCED_FACE('',(#62),#58,.F.);
#74=CONICAL_SURFACE('',#202,3.,45.);
#75=CONICAL_SURFACE('',#217,2.99999999619228,0.00500000000000494);
#76=FACE_BOUND('',#90,.T.);
#77=FACE_BOUND('',#91,.T.);
#78=FACE_BOUND('',#93,.T.);
#79=FACE_BOUND('',#94,.T.);
#80=FACE_BOUND('',#95,.T.);
#81=FACE_BOUND('',#96,.T.);
#82=FACE_BOUND('',#97,.T.);
#83=FACE_BOUND('',#98,.T.);
#84=FACE_BOUND('',#99,.T.);
#85=FACE_BOUND('',#100,.T.);
#86=FACE_BOUND('',#103,.T.);
#87=FACE_BOUND('',#104,.T.);
#88=FACE_BOUND('',#105,.T.);
#89=FACE_BOUND('',#106,.T.);
#90=EDGE_LOOP('',(#108));
#91=EDGE_LOOP('',(#109));
#92=EDGE_LOOP('',(#110));
#93=EDGE_LOOP('',(#111));
#94=EDGE_LOOP('',(#112));
#95=EDGE_LOOP('',(#113));
#96=EDGE_LOOP('',(#114));
#97=EDGE_LOOP('',(#115));
#98=EDGE_LOOP('',(#116));
#99=EDGE_LOOP('',(#117));
#100=EDGE_LOOP('',(#118));
#101=EDGE_LOOP('',(#119));
#102=EDGE_LOOP('',(#120));
#103=EDGE_LOOP('',(#121));
#104=EDGE_LOOP('',(#122));
#105=EDGE_LOOP('',(#123));
#106=EDGE_LOOP('',(#124));
#107=EDGE_LOOP('',(#125));
#108=ORIENTED_EDGE('',*,*,#135,.T.);
#109=ORIENTED_EDGE('',*,*,#136,.F.);
#110=ORIENTED_EDGE('',*,*,#135,.F.);
#111=ORIENTED_EDGE('',*,*,#137,.T.);
#112=ORIENTED_EDGE('',*,*,#138,.F.);
#113=ORIENTED_EDGE('',*,*,#139,.T.);
#114=ORIENTED_EDGE('',*,*,#137,.F.);
#115=ORIENTED_EDGE('',*,*,#140,.T.);
#116=ORIENTED_EDGE('',*,*,#139,.F.);
#117=ORIENTED_EDGE('',*,*,#136,.T.);
#118=ORIENTED_EDGE('',*,*,#140,.F.);
#119=ORIENTED_EDGE('',*,*,#138,.T.);
#120=ORIENTED_EDGE('',*,*,#141,.T.);
#121=ORIENTED_EDGE('',*,*,#142,.T.);
#122=ORIENTED_EDGE('',*,*,#141,.F.);
#123=ORIENTED_EDGE('',*,*,#143,.F.);
#124=ORIENTED_EDGE('',*,*,#142,.F.);
#125=ORIENTED_EDGE('',*,*,#143,.T.);
#126=VERTEX_POINT('',#307);
#127=VERTEX_POINT('',#309);
#128=VERTEX_POINT('',#313);
#129=VERTEX_POINT('',#315);
#130=VERTEX_POINT('',#345);
#131=VERTEX_POINT('',#348);
#132=VERTEX_POINT('',#353);
#133=VERTEX_POINT('',#356);
#134=VERTEX_POINT('',#359);
#135=EDGE_CURVE('',#126,#126,#144,.T.);
#136=EDGE_CURVE('',#127,#127,#145,.T.);
#137=EDGE_CURVE('',#128,#128,#146,.T.);
#138=EDGE_CURVE('',#129,#129,#147,.T.);
#139=EDGE_CURVE('',#130,#130,#148,.T.);
#140=EDGE_CURVE('',#131,#131,#149,.T.);
#141=EDGE_CURVE('',#132,#132,#150,.T.);
#142=EDGE_CURVE('',#133,#133,#151,.T.);
#143=EDGE_CURVE('',#134,#134,#152,.T.);
#144=CIRCLE('',#200,2.5);
#145=CIRCLE('',#201,3.);
#146=CIRCLE('',#204,2.84999999999999);
#147=CIRCLE('',#205,2.99886553979104);
#148=CIRCLE('',#206,2.84999999999999);
#149=CIRCLE('',#208,3.);
#150=CIRCLE('',#212,2.);
#151=CIRCLE('',#214,2.99999999619228);
#152=CIRCLE('',#216,2.99886553979104);
#153=CURVE_STYLE('',#158,POSITIVE_LENGTH_MEASURE(0.18),#157);
#154=CURVE_STYLE('',#159,POSITIVE_LENGTH_MEASURE(0.18),#193);
#155=CURVE_STYLE('',#160,POSITIVE_LENGTH_MEASURE(0.18),#193);
#156=CURVE_STYLE('',#161,POSITIVE_LENGTH_MEASURE(0.18),#193);
#157=DRAUGHTING_PRE_DEFINED_COLOUR('blue');
#158=DRAUGHTING_PRE_DEFINED_CURVE_FONT('continuous');
#159=DRAUGHTING_PRE_DEFINED_CURVE_FONT('continuous');
#160=DRAUGHTING_PRE_DEFINED_CURVE_FONT('continuous');
#161=DRAUGHTING_PRE_DEFINED_CURVE_FONT('continuous');
#162=B_SPLINE_CURVE_WITH_KNOTS('CUTTING PART LINE',3,(#270,#271,#272,#273,
#274,#275,#276,#277,#278,#279,#280,#281,#282,#283,#284,#285,#286,#287,#288,
#289,#290,#291,#292,#293,#294,#295,#296,#297,#298,#299,#300,#301,#302),
 .UNSPECIFIED.,.T.,.F.,(1,3,3,1,1,1,1,1,1,1,1,1,1,1,1,1,1,1,1,1,1,1,1,1,
1,1,3,3,1),(-0.0893326108,0.,0.4170432229,0.44683202455,0.47587610615875,
0.4766208262,0.47808316181875,0.4795454974375,0.482470168675,0.4853948399125,
0.48831951115,0.4912441823875,0.494168853625,0.4970935248625,0.5000181961,
0.5029428673375,0.505867538575,0.5087922098125,0.51171688105,0.5146415522875,
0.517566223525,0.5204908947625,0.52195323038125,0.523415566,0.5241416631685,
0.7170414776,0.9106673892,1.,1.4170432229),.UNSPECIFIED.);
#163=PRESENTATION_LAYER_ASSIGNMENT('1','Layer 1',(#266,#267,#268,#269,#162,
#197,#198,#199,#46,#47));
#164=STYLED_ITEM('',(#174),#266);
#165=STYLED_ITEM('',(#175),#267);
#166=STYLED_ITEM('',(#176),#268);
#167=STYLED_ITEM('',(#177),#269);
#168=STYLED_ITEM('',(#178),#162);
#169=STYLED_ITEM('',(#179),#197);
#170=STYLED_ITEM('',(#180),#198);
#171=STYLED_ITEM('',(#181),#199);
#172=STYLED_ITEM('',(#182),#46);
#173=STYLED_ITEM('',(#183),#47);
#174=PRESENTATION_STYLE_ASSIGNMENT((#184));
#175=PRESENTATION_STYLE_ASSIGNMENT((#185));
#176=PRESENTATION_STYLE_ASSIGNMENT((#186));
#177=PRESENTATION_STYLE_ASSIGNMENT((#187));
#178=PRESENTATION_STYLE_ASSIGNMENT((#153));
#179=PRESENTATION_STYLE_ASSIGNMENT((#154));
#180=PRESENTATION_STYLE_ASSIGNMENT((#155));
#181=PRESENTATION_STYLE_ASSIGNMENT((#156));
#182=PRESENTATION_STYLE_ASSIGNMENT((#36));
#183=PRESENTATION_STYLE_ASSIGNMENT((#37));
#184=POINT_STYLE('',#188,POSITIVE_LENGTH_MEASURE(3.),#192);
#185=POINT_STYLE('',#189,POSITIVE_LENGTH_MEASURE(3.),#193);
#186=POINT_STYLE('',#190,POSITIVE_LENGTH_MEASURE(3.),#193);
#187=POINT_STYLE('',#191,POSITIVE_LENGTH_MEASURE(3.),#193);
#188=PRE_DEFINED_POINT_MARKER_SYMBOL('plus');
#189=PRE_DEFINED_POINT_MARKER_SYMBOL('plus');
#190=PRE_DEFINED_POINT_MARKER_SYMBOL('plus');
#191=PRE_DEFINED_POINT_MARKER_SYMBOL('plus');
#192=COLOUR_RGB('Pale Royal',0.219592584115358,0.470572976272221,0.752941176470588);
#193=COLOUR_RGB('Pale Maroon',0.811749446860456,0.603921568627451,0.611749446860456);
#194=COLOUR_RGB('Medium Gray',0.490196078431373,0.490196078431373,0.490196078431373);
#195=COLOUR_RGB('Light Gray',0.8,0.8,0.8);
#196=AXIS2_PLACEMENT_3D('',#265,#219,#220);
#197=AXIS2_PLACEMENT_3D('MCS',#303,#221,#222);
#198=AXIS2_PLACEMENT_3D('CIP',#304,#223,#224);
#199=AXIS2_PLACEMENT_3D('PCS',#305,#225,#226);
#200=AXIS2_PLACEMENT_3D('',#306,#227,#228);
#201=AXIS2_PLACEMENT_3D('',#308,#229,#230);
#202=AXIS2_PLACEMENT_3D('',#310,#231,#232);
#203=AXIS2_PLACEMENT_3D('',#311,#233,#234);
#204=AXIS2_PLACEMENT_3D('',#312,#235,#236);
#205=AXIS2_PLACEMENT_3D('',#314,#237,#238);
#206=AXIS2_PLACEMENT_3D('',#344,#239,#240);
#207=AXIS2_PLACEMENT_3D('',#346,#241,#242);
#208=AXIS2_PLACEMENT_3D('',#347,#243,#244);
#209=AXIS2_PLACEMENT_3D('',#349,#245,#246);
#210=AXIS2_PLACEMENT_3D('',#350,#247,#248);
#211=AXIS2_PLACEMENT_3D('',#351,#249,#250);
#212=AXIS2_PLACEMENT_3D('',#352,#251,#252);
#213=AXIS2_PLACEMENT_3D('',#354,#253,#254);
#214=AXIS2_PLACEMENT_3D('',#355,#255,#256);
#215=AXIS2_PLACEMENT_3D('',#357,#257,#258);
#216=AXIS2_PLACEMENT_3D('',#358,#259,#260);
#217=AXIS2_PLACEMENT_3D('',#360,#261,#262);
#218=AXIS2_PLACEMENT_3D('',#361,#263,#264);
#219=DIRECTION('',(0.,0.,1.));
#220=DIRECTION('',(1.,0.,0.));
#221=DIRECTION('',(0.,0.,1.));
#222=DIRECTION('',(1.,0.,0.));
#223=DIRECTION('',(0.,0.,1.));
#224=DIRECTION('',(1.,0.,0.));
#225=DIRECTION('',(0.,0.,1.));
#226=DIRECTION('',(1.,0.,0.));
#227=DIRECTION('',(0.,0.,-1.));
#228=DIRECTION('',(-1.,0.,0.));
#229=DIRECTION('',(0.,0.,-1.));
#230=DIRECTION('',(-1.,0.,0.));
#231=DIRECTION('',(0.,0.,-1.));
#232=DIRECTION('',(1.,0.,5.49127321657663E-17));
#233=DIRECTION('',(0.,0.,1.));
#234=DIRECTION('',(-1.,0.,0.));
#235=DIRECTION('',(0.,0.,-1.));
#236=DIRECTION('',(-1.,0.,0.));
#237=DIRECTION('',(0.,0.,-1.));
#238=DIRECTION('',(-1.,0.,0.));
#239=DIRECTION('',(0.,0.,-1.));
#240=DIRECTION('',(-1.,0.,0.));
#241=DIRECTION('',(0.,0.,-1.));
#242=DIRECTION('',(1.,0.,0.));
#243=DIRECTION('',(0.,0.,-1.));
#244=DIRECTION('',(-1.,0.,0.));
#245=DIRECTION('',(0.,0.,-1.));
#246=DIRECTION('',(1.,0.,0.));
#247=DIRECTION('',(0.,0.,-1.));
#248=DIRECTION('',(1.,0.,0.));
#249=DIRECTION('',(0.,0.,-1.));
#250=DIRECTION('',(1.,0.,0.));
#251=DIRECTION('',(0.,0.,-1.));
#252=DIRECTION('',(-1.,0.,0.));
#253=DIRECTION('',(0.,0.,-1.));
#254=DIRECTION('',(1.,0.,0.));
#255=DIRECTION('',(0.,0.,-1.));
#256=DIRECTION('',(-1.,0.,0.));
#257=DIRECTION('',(0.,0.,-1.));
#258=DIRECTION('',(1.,0.,0.));
#259=DIRECTION('',(0.,0.,1.));
#260=DIRECTION('',(-1.,0.,0.));
#261=DIRECTION('',(0.,0.,-1.));
#262=DIRECTION('',(1.,0.,-1.57330952712354E-14));
#263=DIRECTION('',(0.,0.,-1.));
#264=DIRECTION('',(1.,0.,0.));
#265=CARTESIAN_POINT('',(0.,0.,0.));
#266=CARTESIAN_POINT('CRP',(-3.,0.,-57.));
#267=CARTESIAN_POINT('',(0.,0.,-35.7844754218856));
#268=CARTESIAN_POINT('',(0.,0.,-57.));
#269=CARTESIAN_POINT('',(0.,0.,0.));
#270=CARTESIAN_POINT('',(0.,0.,-43.));
#271=CARTESIAN_POINT('',(0.,0.,-47.6666666666667));
#272=CARTESIAN_POINT('',(0.,0.,-52.3333333333333));
#273=CARTESIAN_POINT('',(0.,0.,-57.));
#274=CARTESIAN_POINT('',(-0.333333333333333,0.,-57.));
#275=CARTESIAN_POINT('',(-0.991666666666667,0.,-57.));
#276=CARTESIAN_POINT('',(-1.65833333333333,0.,-57.));
#277=CARTESIAN_POINT('',(-2.00803003905661,0.,-57.0001023532984));
#278=CARTESIAN_POINT('',(-2.04909009956367,0.,-56.9991960744139));
#279=CARTESIAN_POINT('',(-2.11438593041588,0.,-56.9943802656432));
#280=CARTESIAN_POINT('',(-2.19541471411477,0.,-56.982360105581));
#281=CARTESIAN_POINT('',(-2.29076709411468,0.,-56.9584741934628));
#282=CARTESIAN_POINT('',(-2.38331891857867,0.,-56.9253566308124));
#283=CARTESIAN_POINT('',(-2.47217876057259,0.,-56.8833263839707));
#284=CARTESIAN_POINT('',(-2.55649076046396,0.,-56.8327882810438));
#285=CARTESIAN_POINT('',(-2.63544285229437,0.,-56.7742290772296));
#286=CARTESIAN_POINT('',(-2.70827460596448,0.,-56.7082127999978));
#287=CARTESIAN_POINT('',(-2.77428452705066,0.,-56.6353752857376));
#288=CARTESIAN_POINT('',(-2.83283684083248,0.,-56.5564180838918));
#289=CARTESIAN_POINT('',(-2.88336758595561,0.,-56.4721016740488));
#290=CARTESIAN_POINT('',(-2.92539007816686,0.,-56.3832381645397));
#291=CARTESIAN_POINT('',(-2.9584995640325,0.,-56.2906834503529));
#292=CARTESIAN_POINT('',(-2.98237715500557,0.,-56.1953289862216));
#293=CARTESIAN_POINT('',(-2.99439024392327,0.,-56.1142991538189));
#294=CARTESIAN_POINT('',(-2.99920035453113,0.,-56.0490029030389));
#295=CARTESIAN_POINT('',(-3.00010050892631,0.,-56.0081511516664));
#296=CARTESIAN_POINT('',(-2.99981021109016,0.,-53.8251356658228));
#297=CARTESIAN_POINT('',(-2.99943205895641,0.,-49.4918314213103));
#298=CARTESIAN_POINT('',(-2.99905461585792,0.,-45.1666521222563));
#299=CARTESIAN_POINT('',(-2.99886553979104,0.,-43.));
#300=CARTESIAN_POINT('',(-1.99924369319403,0.,-43.));
#301=CARTESIAN_POINT('',(-0.999621846597014,0.,-43.));
#302=CARTESIAN_POINT('',(0.,0.,-43.));
#303=CARTESIAN_POINT('',(0.,0.,-35.7844754218856));
#304=CARTESIAN_POINT('',(0.,0.,-57.));
#305=CARTESIAN_POINT('',(0.,0.,0.));
#306=CARTESIAN_POINT('',(0.,0.,0.));
#307=CARTESIAN_POINT('',(-2.5,0.,0.));
#308=CARTESIAN_POINT('',(0.,0.,-0.5));
#309=CARTESIAN_POINT('',(-3.,0.,-0.5));
#310=CARTESIAN_POINT('',(0.,0.,-0.5));
#311=CARTESIAN_POINT('',(2.5,0.,5.08080204713085E-17));
#312=CARTESIAN_POINT('',(0.,0.,-42.2430079472773));
#313=CARTESIAN_POINT('',(-2.84999999999999,0.,-42.2430079472773));
#314=CARTESIAN_POINT('',(0.,0.,-43.));
#315=CARTESIAN_POINT('',(-2.99886553979104,0.,-43.));
#316=CARTESIAN_POINT('',(-2.99886553979103,0.,-43.));
#317=CARTESIAN_POINT('',(-2.99886553979103,5.99773107958207,-43.));
#318=CARTESIAN_POINT('',(2.99886553979103,5.99773107958207,-43.));
#319=CARTESIAN_POINT('',(2.99886553979103,0.,-43.));
#320=CARTESIAN_POINT('',(2.99886553979103,-5.99773107958207,-43.));
#321=CARTESIAN_POINT('',(-2.99886553979103,-5.99773107958207,-43.));
#322=CARTESIAN_POINT('',(-2.99886553979103,0.,-43.));
#323=CARTESIAN_POINT('',(-2.99884281356103,0.,-42.7395765879691));
#324=CARTESIAN_POINT('',(-2.99884281356103,5.99768562712207,-42.7395765879691));
#325=CARTESIAN_POINT('',(2.99884281356103,5.99768562712207,-42.7395765879691));
#326=CARTESIAN_POINT('',(2.99884281356103,0.,-42.7395765879691));
#327=CARTESIAN_POINT('',(2.99884281356103,-5.99768562712207,-42.7395765879691));
#328=CARTESIAN_POINT('',(-2.99884281356103,-5.99768562712207,-42.7395765879691));
#329=CARTESIAN_POINT('',(-2.99884281356103,0.,-42.7395765879691));
#330=CARTESIAN_POINT('',(-2.94859195323047,0.,-42.4840473233313));
#331=CARTESIAN_POINT('',(-2.94859195323047,5.89718390646094,-42.4840473233313));
#332=CARTESIAN_POINT('',(2.94859195323047,5.89718390646094,-42.4840473233313));
#333=CARTESIAN_POINT('',(2.94859195323047,0.,-42.4840473233313));
#334=CARTESIAN_POINT('',(2.94859195323047,-5.89718390646094,-42.4840473233313));
#335=CARTESIAN_POINT('',(-2.94859195323047,-5.89718390646094,-42.4840473233313));
#336=CARTESIAN_POINT('',(-2.94859195323047,0.,-42.4840473233313));
#337=CARTESIAN_POINT('',(-2.85,0.,-42.2430079472773));
#338=CARTESIAN_POINT('',(-2.85,5.69999999999999,-42.2430079472773));
#339=CARTESIAN_POINT('',(2.85,5.69999999999999,-42.2430079472773));
#340=CARTESIAN_POINT('',(2.85,0.,-42.2430079472773));
#341=CARTESIAN_POINT('',(2.85,-5.69999999999999,-42.2430079472773));
#342=CARTESIAN_POINT('',(-2.85,-5.69999999999999,-42.2430079472773));
#343=CARTESIAN_POINT('',(-2.85,0.,-42.2430079472773));
#344=CARTESIAN_POINT('',(0.,0.,-37.));
#345=CARTESIAN_POINT('',(-2.84999999999999,0.,-37.));
#346=CARTESIAN_POINT('',(0.,0.,-36.));
#347=CARTESIAN_POINT('',(0.,0.,-35.7844754218856));
#348=CARTESIAN_POINT('',(-3.,0.,-35.7844754218856));
#349=CARTESIAN_POINT('',(0.,0.,-37.));
#350=CARTESIAN_POINT('',(0.,0.,-36.));
#351=CARTESIAN_POINT('',(0.,0.,-43.));
#352=CARTESIAN_POINT('',(0.,0.,-57.));
#353=CARTESIAN_POINT('',(-2.,0.,-57.));
#354=CARTESIAN_POINT('',(-4.88498130835069E-15,0.,-57.));
#355=CARTESIAN_POINT('',(0.,0.,-55.9999127335375));
#356=CARTESIAN_POINT('',(-2.99999999619228,0.,-55.9999127335375));
#357=CARTESIAN_POINT('',(0.,0.,-56.));
#358=CARTESIAN_POINT('',(0.,0.,-43.));
#359=CARTESIAN_POINT('',(-2.99886553979104,0.,-43.));
#360=CARTESIAN_POINT('',(0.,0.,-55.9999127335375));
#361=CARTESIAN_POINT('',(0.,0.,-43.));
#362=MECHANICAL_DESIGN_GEOMETRIC_PRESENTATION_REPRESENTATION('',(#164,#165,
#166,#167,#168,#169,#170,#171,#172,#173),#363);
#363=(
GEOMETRIC_REPRESENTATION_CONTEXT(3)
GLOBAL_UNCERTAINTY_ASSIGNED_CONTEXT((#364))
GLOBAL_UNIT_ASSIGNED_CONTEXT((#370,#366,#365))
REPRESENTATION_CONTEXT('S4651-060E2R100','TOP_LEVEL_ASSEMBLY_PART')
);
#364=UNCERTAINTY_MEASURE_WITH_UNIT(LENGTH_MEASURE(0.0254),#370,
'DISTANCE_ACCURACY_VALUE','Maximum Tolerance applied to model');
#365=(
NAMED_UNIT(*)
SI_UNIT($,.STERADIAN.)
SOLID_ANGLE_UNIT()
);
#366=(
CONVERSION_BASED_UNIT('DEGREE',#368)
NAMED_UNIT(#367)
PLANE_ANGLE_UNIT()
);
#367=DIMENSIONAL_EXPONENTS(0.,0.,0.,0.,0.,0.,0.);
#368=PLANE_ANGLE_MEASURE_WITH_UNIT(PLANE_ANGLE_MEASURE(0.0174532925),#369);
#369=(
NAMED_UNIT(*)
PLANE_ANGLE_UNIT()
SI_UNIT($,.RADIAN.)
);
#370=(
LENGTH_UNIT()
NAMED_UNIT(*)
SI_UNIT(.MILLI.,.METRE.)
);
ENDSEC;
END-ISO-10303-21;
