ISO-10303-21;
HEADER;
/* Generated by software containing ST-Developer
 * from STEP Tools, Inc. (www.steptools.com) 
 */
/* OPTION: using custom schema-name function */

FILE_DESCRIPTION(
/* description */ (''),
/* implementation_level */ '2;1');

FILE_NAME(
/* name */ 'S4651-080E2R100.0Z5AC_Basic.stp',
/* time_stamp */ '2024-07-12T09:40:49+05:00',
/* author */ (''),
/* organization */ (''),
/* preprocessor_version */ 'ST-DEVELOPER v16.7',
/* originating_system */ 'SIEMENS PLM Software NX 12.0',
/* authorisation */ '');

FILE_SCHEMA (('AUTOMOTIVE_DESIGN { 1 0 10303 214 3 1 1 1 }'));
ENDSEC;

DATA;
#10=CONSTRUCTIVE_GEOMETRY_REPRESENTATION_RELATIONSHIP(
'supplemental geometry','',#34,#11);
#11=CONSTRUCTIVE_GEOMETRY_REPRESENTATION('supplemental geometry',(#219,
#220,#221),#403);
#12=GEOMETRICALLY_BOUNDED_WIREFRAME_SHAPE_REPRESENTATION(
'inpu4210730Chp55-None',(#35),#403);
#13=PROPERTY_DEFINITION_REPRESENTATION(#17,#15);
#14=PROPERTY_DEFINITION_REPRESENTATION(#18,#16);
#15=REPRESENTATION('',(#19),#403);
#16=REPRESENTATION('',(#20),#403);
#17=PROPERTY_DEFINITION('pmi validation property','',#25);
#18=PROPERTY_DEFINITION('pmi validation property','',#25);
#19=VALUE_REPRESENTATION_ITEM('number of annotations',COUNT_MEASURE(0.));
#20=VALUE_REPRESENTATION_ITEM('number of views',COUNT_MEASURE(0.));
#21=SHAPE_REPRESENTATION_RELATIONSHIP('None',
'relationship between inpu4210730Chp55-None and inpu4210730Chp55-None',
#34,#23);
#22=SHAPE_REPRESENTATION_RELATIONSHIP('None',
'relationship between inpu4210730Chp55-None and inpu4210730Chp55-None',
#34,#12);
#23=ADVANCED_BREP_SHAPE_REPRESENTATION('inpu4210730Chp55-None',(#46,#47),
#403);
#24=SHAPE_DEFINITION_REPRESENTATION(#25,#34);
#25=PRODUCT_DEFINITION_SHAPE('','',#26);
#26=PRODUCT_DEFINITION(' ','',#28,#27);
#27=PRODUCT_DEFINITION_CONTEXT('part definition',#33,'design');
#28=PRODUCT_DEFINITION_FORMATION_WITH_SPECIFIED_SOURCE(' ',' ',#30,
 .NOT_KNOWN.);
#29=PRODUCT_RELATED_PRODUCT_CATEGORY('part','',(#30));
#30=PRODUCT('inpu4210730Chp55','inpu4210730Chp55',' ',(#31));
#31=PRODUCT_CONTEXT(' ',#33,'mechanical');
#32=APPLICATION_PROTOCOL_DEFINITION('international standard',
'automotive_design',2010,#33);
#33=APPLICATION_CONTEXT(
'core data for automotive mechanical design processes');
#34=SHAPE_REPRESENTATION('inpu4210730Chp55-None',(#218),#403);
#35=GEOMETRIC_CURVE_SET('None',(#300,#301,#302,#303,#184));
#36=SURFACE_STYLE_USAGE(.BOTH.,#38);
#37=SURFACE_STYLE_USAGE(.BOTH.,#39);
#38=SURFACE_SIDE_STYLE('',(#40));
#39=SURFACE_SIDE_STYLE('',(#41));
#40=SURFACE_STYLE_FILL_AREA(#42);
#41=SURFACE_STYLE_FILL_AREA(#43);
#42=FILL_AREA_STYLE('',(#44));
#43=FILL_AREA_STYLE('',(#45));
#44=FILL_AREA_STYLE_COLOUR('',#216);
#45=FILL_AREA_STYLE_COLOUR('',#217);
#46=MANIFOLD_SOLID_BREP('NOCUT',#48);
#47=MANIFOLD_SOLID_BREP('CUT',#49);
#48=CLOSED_SHELL('',(#65,#66,#67,#68,#69,#70,#71));
#49=CLOSED_SHELL('',(#72,#73,#74,#75,#76,#77));
#50=TOROIDAL_SURFACE('',#231,8.8,5.);
#51=TOROIDAL_SURFACE('',#238,3.,1.);
#52=CYLINDRICAL_SURFACE('',#229,3.79999999999999);
#53=CYLINDRICAL_SURFACE('',#232,4.);
#54=CYLINDRICAL_SURFACE('',#243,0.4);
#55=(
BOUNDED_SURFACE()
B_SPLINE_SURFACE(3,3,((#350,#351,#352,#353,#354,#355,#356),(#357,#358,#359,
#360,#361,#362,#363),(#364,#365,#366,#367,#368,#369,#370),(#371,#372,#373,
#374,#375,#376,#377)),.UNSPECIFIED.,.F.,.T.,.F.)
B_SPLINE_SURFACE_WITH_KNOTS((4,4),(1,3,3,3,1),(0.,1.),(-0.5,0.,0.5,1.,1.5),
 .UNSPECIFIED.)
GEOMETRIC_REPRESENTATION_ITEM()
RATIONAL_B_SPLINE_SURFACE(((1.,0.333333333333333,0.333333333333333,1.,0.333333333333333,
0.333333333333333,1.),(0.983252928431862,0.327750976143954,0.327750976143954,
0.983252928431862,0.327750976143954,0.327750976143954,0.983252928431862),
(0.983252928431862,0.327750976143954,0.327750976143954,0.983252928431862,
0.327750976143954,0.327750976143954,0.983252928431862),(1.,0.333333333333333,
0.333333333333333,1.,0.333333333333333,0.333333333333333,1.)))
REPRESENTATION_ITEM('')
SURFACE()
);
#56=PLANE('',#225);
#57=PLANE('',#233);
#58=PLANE('',#236);
#59=PLANE('',#241);
#60=PLANE('',#244);
#61=FACE_OUTER_BOUND('',#100,.T.);
#62=FACE_OUTER_BOUND('',#109,.T.);
#63=FACE_OUTER_BOUND('',#116,.T.);
#64=FACE_OUTER_BOUND('',#119,.T.);
#65=ADVANCED_FACE('',(#80,#81),#78,.T.);
#66=ADVANCED_FACE('',(#61),#56,.T.);
#67=ADVANCED_FACE('',(#82,#83),#55,.T.);
#68=ADVANCED_FACE('',(#84,#85),#52,.T.);
#69=ADVANCED_FACE('',(#86,#87),#50,.F.);
#70=ADVANCED_FACE('',(#88,#89),#53,.T.);
#71=ADVANCED_FACE('',(#62),#57,.T.);
#72=ADVANCED_FACE('',(#90,#91),#58,.T.);
#73=ADVANCED_FACE('',(#92,#93),#51,.T.);
#74=ADVANCED_FACE('',(#94,#95),#79,.T.);
#75=ADVANCED_FACE('',(#63),#59,.F.);
#76=ADVANCED_FACE('',(#96,#97),#54,.F.);
#77=ADVANCED_FACE('',(#64),#60,.T.);
#78=CONICAL_SURFACE('',#224,4.,44.9999999999999);
#79=CONICAL_SURFACE('',#240,3.99999999619228,0.00500000000000136);
#80=FACE_BOUND('',#98,.T.);
#81=FACE_BOUND('',#99,.T.);
#82=FACE_BOUND('',#101,.T.);
#83=FACE_BOUND('',#102,.T.);
#84=FACE_BOUND('',#103,.T.);
#85=FACE_BOUND('',#104,.T.);
#86=FACE_BOUND('',#105,.T.);
#87=FACE_BOUND('',#106,.T.);
#88=FACE_BOUND('',#107,.T.);
#89=FACE_BOUND('',#108,.T.);
#90=FACE_BOUND('',#110,.T.);
#91=FACE_BOUND('',#111,.T.);
#92=FACE_BOUND('',#112,.T.);
#93=FACE_BOUND('',#113,.T.);
#94=FACE_BOUND('',#114,.T.);
#95=FACE_BOUND('',#115,.T.);
#96=FACE_BOUND('',#117,.T.);
#97=FACE_BOUND('',#118,.T.);
#98=EDGE_LOOP('',(#120));
#99=EDGE_LOOP('',(#121));
#100=EDGE_LOOP('',(#122));
#101=EDGE_LOOP('',(#123));
#102=EDGE_LOOP('',(#124));
#103=EDGE_LOOP('',(#125));
#104=EDGE_LOOP('',(#126));
#105=EDGE_LOOP('',(#127));
#106=EDGE_LOOP('',(#128));
#107=EDGE_LOOP('',(#129));
#108=EDGE_LOOP('',(#130));
#109=EDGE_LOOP('',(#131));
#110=EDGE_LOOP('',(#132));
#111=EDGE_LOOP('',(#133));
#112=EDGE_LOOP('',(#134));
#113=EDGE_LOOP('',(#135));
#114=EDGE_LOOP('',(#136));
#115=EDGE_LOOP('',(#137));
#116=EDGE_LOOP('',(#138));
#117=EDGE_LOOP('',(#139));
#118=EDGE_LOOP('',(#140));
#119=EDGE_LOOP('',(#141));
#120=ORIENTED_EDGE('',*,*,#153,.T.);
#121=ORIENTED_EDGE('',*,*,#154,.F.);
#122=ORIENTED_EDGE('',*,*,#153,.F.);
#123=ORIENTED_EDGE('',*,*,#155,.T.);
#124=ORIENTED_EDGE('',*,*,#156,.F.);
#125=ORIENTED_EDGE('',*,*,#157,.T.);
#126=ORIENTED_EDGE('',*,*,#155,.F.);
#127=ORIENTED_EDGE('',*,*,#158,.T.);
#128=ORIENTED_EDGE('',*,*,#157,.F.);
#129=ORIENTED_EDGE('',*,*,#154,.T.);
#130=ORIENTED_EDGE('',*,*,#158,.F.);
#131=ORIENTED_EDGE('',*,*,#156,.T.);
#132=ORIENTED_EDGE('',*,*,#159,.F.);
#133=ORIENTED_EDGE('',*,*,#160,.T.);
#134=ORIENTED_EDGE('',*,*,#161,.T.);
#135=ORIENTED_EDGE('',*,*,#160,.F.);
#136=ORIENTED_EDGE('',*,*,#162,.F.);
#137=ORIENTED_EDGE('',*,*,#161,.F.);
#138=ORIENTED_EDGE('',*,*,#162,.T.);
#139=ORIENTED_EDGE('',*,*,#163,.T.);
#140=ORIENTED_EDGE('',*,*,#159,.T.);
#141=ORIENTED_EDGE('',*,*,#163,.F.);
#142=VERTEX_POINT('',#341);
#143=VERTEX_POINT('',#343);
#144=VERTEX_POINT('',#347);
#145=VERTEX_POINT('',#349);
#146=VERTEX_POINT('',#379);
#147=VERTEX_POINT('',#382);
#148=VERTEX_POINT('',#387);
#149=VERTEX_POINT('',#389);
#150=VERTEX_POINT('',#392);
#151=VERTEX_POINT('',#395);
#152=VERTEX_POINT('',#399);
#153=EDGE_CURVE('',#142,#142,#164,.T.);
#154=EDGE_CURVE('',#143,#143,#165,.T.);
#155=EDGE_CURVE('',#144,#144,#166,.T.);
#156=EDGE_CURVE('',#145,#145,#167,.T.);
#157=EDGE_CURVE('',#146,#146,#168,.T.);
#158=EDGE_CURVE('',#147,#147,#169,.T.);
#159=EDGE_CURVE('',#148,#148,#170,.T.);
#160=EDGE_CURVE('',#149,#149,#171,.T.);
#161=EDGE_CURVE('',#150,#150,#172,.T.);
#162=EDGE_CURVE('',#151,#151,#173,.T.);
#163=EDGE_CURVE('',#152,#152,#174,.T.);
#164=CIRCLE('',#222,3.29999999999999);
#165=CIRCLE('',#223,4.);
#166=CIRCLE('',#226,3.79999999999999);
#167=CIRCLE('',#227,3.99851647393976);
#168=CIRCLE('',#228,3.79999999999999);
#169=CIRCLE('',#230,4.);
#170=CIRCLE('',#234,0.4);
#171=CIRCLE('',#235,3.);
#172=CIRCLE('',#237,3.99999999619228);
#173=CIRCLE('',#239,3.99851647393975);
#174=CIRCLE('',#242,0.4);
#175=CURVE_STYLE('',#180,POSITIVE_LENGTH_MEASURE(0.18),#179);
#176=CURVE_STYLE('',#181,POSITIVE_LENGTH_MEASURE(0.18),#215);
#177=CURVE_STYLE('',#182,POSITIVE_LENGTH_MEASURE(0.18),#215);
#178=CURVE_STYLE('',#183,POSITIVE_LENGTH_MEASURE(0.18),#215);
#179=DRAUGHTING_PRE_DEFINED_COLOUR('blue');
#180=DRAUGHTING_PRE_DEFINED_CURVE_FONT('continuous');
#181=DRAUGHTING_PRE_DEFINED_CURVE_FONT('continuous');
#182=DRAUGHTING_PRE_DEFINED_CURVE_FONT('continuous');
#183=DRAUGHTING_PRE_DEFINED_CURVE_FONT('continuous');
#184=B_SPLINE_CURVE_WITH_KNOTS('CUTTING PART LINE',3,(#304,#305,#306,#307,
#308,#309,#310,#311,#312,#313,#314,#315,#316,#317,#318,#319,#320,#321,#322,
#323,#324,#325,#326,#327,#328,#329,#330,#331,#332,#333,#334,#335,#336),
 .UNSPECIFIED.,.T.,.F.,(1,3,3,1,1,1,1,1,1,1,1,1,1,1,1,1,1,1,1,1,1,1,1,1,
1,1,3,3,1),(-0.0917736869,0.,0.4131348147,0.44756271595,0.481345094051563,
0.4819906172,0.483117330225,0.48424404325,0.4864974693,0.48875089535,0.4910043214,
0.49325774745,0.4955111735,0.49776459955,0.5000180256,0.50227145165,0.5045248777,
0.50677830375,0.5090317298,0.51128515585,0.5135385819,0.51579200795,0.516918720975,
0.518045434,0.518655091623594,0.71313587355,0.9082263131,1.,1.4131348147),
 .UNSPECIFIED.);
#185=PRESENTATION_LAYER_ASSIGNMENT('1','Layer 1',(#300,#301,#302,#303,#184,
#219,#220,#221,#46,#47));
#186=STYLED_ITEM('',(#196),#300);
#187=STYLED_ITEM('',(#197),#301);
#188=STYLED_ITEM('',(#198),#302);
#189=STYLED_ITEM('',(#199),#303);
#190=STYLED_ITEM('',(#200),#184);
#191=STYLED_ITEM('',(#201),#219);
#192=STYLED_ITEM('',(#202),#220);
#193=STYLED_ITEM('',(#203),#221);
#194=STYLED_ITEM('',(#204),#46);
#195=STYLED_ITEM('',(#205),#47);
#196=PRESENTATION_STYLE_ASSIGNMENT((#206));
#197=PRESENTATION_STYLE_ASSIGNMENT((#207));
#198=PRESENTATION_STYLE_ASSIGNMENT((#208));
#199=PRESENTATION_STYLE_ASSIGNMENT((#209));
#200=PRESENTATION_STYLE_ASSIGNMENT((#175));
#201=PRESENTATION_STYLE_ASSIGNMENT((#176));
#202=PRESENTATION_STYLE_ASSIGNMENT((#177));
#203=PRESENTATION_STYLE_ASSIGNMENT((#178));
#204=PRESENTATION_STYLE_ASSIGNMENT((#36));
#205=PRESENTATION_STYLE_ASSIGNMENT((#37));
#206=POINT_STYLE('',#210,POSITIVE_LENGTH_MEASURE(3.),#214);
#207=POINT_STYLE('',#211,POSITIVE_LENGTH_MEASURE(3.),#215);
#208=POINT_STYLE('',#212,POSITIVE_LENGTH_MEASURE(3.),#215);
#209=POINT_STYLE('',#213,POSITIVE_LENGTH_MEASURE(3.),#215);
#210=PRE_DEFINED_POINT_MARKER_SYMBOL('plus');
#211=PRE_DEFINED_POINT_MARKER_SYMBOL('plus');
#212=PRE_DEFINED_POINT_MARKER_SYMBOL('plus');
#213=PRE_DEFINED_POINT_MARKER_SYMBOL('plus');
#214=COLOUR_RGB('Pale Royal',0.219592584115358,0.470572976272221,0.752941176470588);
#215=COLOUR_RGB('Pale Maroon',0.811749446860456,0.603921568627451,0.611749446860456);
#216=COLOUR_RGB('Medium Gray',0.490196078431373,0.490196078431373,0.490196078431373);
#217=COLOUR_RGB('Light Gray',0.8,0.8,0.8);
#218=AXIS2_PLACEMENT_3D('',#299,#245,#246);
#219=AXIS2_PLACEMENT_3D('MCS',#337,#247,#248);
#220=AXIS2_PLACEMENT_3D('CIP',#338,#249,#250);
#221=AXIS2_PLACEMENT_3D('PCS',#339,#251,#252);
#222=AXIS2_PLACEMENT_3D('',#340,#253,#254);
#223=AXIS2_PLACEMENT_3D('',#342,#255,#256);
#224=AXIS2_PLACEMENT_3D('',#344,#257,#258);
#225=AXIS2_PLACEMENT_3D('',#345,#259,#260);
#226=AXIS2_PLACEMENT_3D('',#346,#261,#262);
#227=AXIS2_PLACEMENT_3D('',#348,#263,#264);
#228=AXIS2_PLACEMENT_3D('',#378,#265,#266);
#229=AXIS2_PLACEMENT_3D('',#380,#267,#268);
#230=AXIS2_PLACEMENT_3D('',#381,#269,#270);
#231=AXIS2_PLACEMENT_3D('',#383,#271,#272);
#232=AXIS2_PLACEMENT_3D('',#384,#273,#274);
#233=AXIS2_PLACEMENT_3D('',#385,#275,#276);
#234=AXIS2_PLACEMENT_3D('',#386,#277,#278);
#235=AXIS2_PLACEMENT_3D('',#388,#279,#280);
#236=AXIS2_PLACEMENT_3D('',#390,#281,#282);
#237=AXIS2_PLACEMENT_3D('',#391,#283,#284);
#238=AXIS2_PLACEMENT_3D('',#393,#285,#286);
#239=AXIS2_PLACEMENT_3D('',#394,#287,#288);
#240=AXIS2_PLACEMENT_3D('',#396,#289,#290);
#241=AXIS2_PLACEMENT_3D('',#397,#291,#292);
#242=AXIS2_PLACEMENT_3D('',#398,#293,#294);
#243=AXIS2_PLACEMENT_3D('',#400,#295,#296);
#244=AXIS2_PLACEMENT_3D('',#401,#297,#298);
#245=DIRECTION('',(0.,0.,1.));
#246=DIRECTION('',(1.,0.,0.));
#247=DIRECTION('',(0.,0.,1.));
#248=DIRECTION('',(1.,0.,0.));
#249=DIRECTION('',(0.,0.,1.));
#250=DIRECTION('',(1.,0.,0.));
#251=DIRECTION('',(0.,0.,1.));
#252=DIRECTION('',(1.,0.,0.));
#253=DIRECTION('',(0.,0.,-1.));
#254=DIRECTION('',(-1.,0.,0.));
#255=DIRECTION('',(0.,0.,-1.));
#256=DIRECTION('',(-1.,0.,0.));
#257=DIRECTION('',(0.,0.,-1.));
#258=DIRECTION('',(1.,0.,8.27190103709063E-17));
#259=DIRECTION('',(0.,0.,1.));
#260=DIRECTION('',(-1.,0.,0.));
#261=DIRECTION('',(0.,0.,-1.));
#262=DIRECTION('',(-1.,0.,0.));
#263=DIRECTION('',(0.,0.,-1.));
#264=DIRECTION('',(-1.,0.,0.));
#265=DIRECTION('',(0.,0.,-1.));
#266=DIRECTION('',(-1.,0.,0.));
#267=DIRECTION('',(0.,0.,-1.));
#268=DIRECTION('',(1.,0.,0.));
#269=DIRECTION('',(0.,0.,-1.));
#270=DIRECTION('',(-1.,0.,0.));
#271=DIRECTION('',(0.,0.,-1.));
#272=DIRECTION('',(1.,0.,0.));
#273=DIRECTION('',(0.,0.,-1.));
#274=DIRECTION('',(1.,0.,0.));
#275=DIRECTION('',(0.,0.,-1.));
#276=DIRECTION('',(1.,0.,0.));
#277=DIRECTION('',(0.,0.,-1.));
#278=DIRECTION('',(1.,1.22464679914735E-16,0.));
#279=DIRECTION('',(0.,0.,-1.));
#280=DIRECTION('',(-1.,0.,0.));
#281=DIRECTION('',(0.,0.,-1.));
#282=DIRECTION('',(1.,0.,0.));
#283=DIRECTION('',(0.,0.,-1.));
#284=DIRECTION('',(-1.,0.,0.));
#285=DIRECTION('',(0.,0.,-1.));
#286=DIRECTION('',(1.,0.,0.));
#287=DIRECTION('',(0.,0.,1.));
#288=DIRECTION('',(-1.,0.,0.));
#289=DIRECTION('',(0.,0.,-1.));
#290=DIRECTION('',(1.,0.,-1.35814857650987E-14));
#291=DIRECTION('',(0.,0.,-1.));
#292=DIRECTION('',(1.,0.,0.));
#293=DIRECTION('',(0.,0.,1.));
#294=DIRECTION('',(1.,1.22464679914735E-16,0.));
#295=DIRECTION('',(0.,0.,-1.));
#296=DIRECTION('',(1.,0.,0.));
#297=DIRECTION('',(0.,0.,-1.));
#298=DIRECTION('',(1.,0.,0.));
#299=CARTESIAN_POINT('',(0.,0.,0.));
#300=CARTESIAN_POINT('CRP',(-4.,0.,-63.));
#301=CARTESIAN_POINT('',(0.,0.,-35.6));
#302=CARTESIAN_POINT('',(0.,0.,-63.));
#303=CARTESIAN_POINT('',(0.,0.,0.));
#304=CARTESIAN_POINT('',(0.,0.,-45.));
#305=CARTESIAN_POINT('',(0.,0.,-51.));
#306=CARTESIAN_POINT('',(0.,0.,-57.));
#307=CARTESIAN_POINT('',(0.,0.,-63.));
#308=CARTESIAN_POINT('',(-0.5,0.,-63.));
#309=CARTESIAN_POINT('',(-1.490625,0.,-63.));
#310=CARTESIAN_POINT('',(-2.490625,0.,-63.));
#311=CARTESIAN_POINT('',(-3.00698837258012,0.,-63.0001151474608));
#312=CARTESIAN_POINT('',(-3.04909009956367,0.,-62.9991960744139));
#313=CARTESIAN_POINT('',(-3.11438593041588,0.,-62.9943802656432));
#314=CARTESIAN_POINT('',(-3.19541471411476,0.,-62.982360105581));
#315=CARTESIAN_POINT('',(-3.29076709411468,0.,-62.9584741934628));
#316=CARTESIAN_POINT('',(-3.38331891857867,0.,-62.9253566308124));
#317=CARTESIAN_POINT('',(-3.47217876057259,0.,-62.8833263839707));
#318=CARTESIAN_POINT('',(-3.5564907604592,0.,-62.8327882810482));
#319=CARTESIAN_POINT('',(-3.6354428523134,0.,-62.7742290772118));
#320=CARTESIAN_POINT('',(-3.70827460589996,0.,-62.7082128000623));
#321=CARTESIAN_POINT('',(-3.77428452706849,0.,-62.6353752857186));
#322=CARTESIAN_POINT('',(-3.83283684082802,0.,-62.5564180838966));
#323=CARTESIAN_POINT('',(-3.88336758595561,0.,-62.4721016740488));
#324=CARTESIAN_POINT('',(-3.92539007816686,0.,-62.3832381645397));
#325=CARTESIAN_POINT('',(-3.9584995640325,0.,-62.2906834503529));
#326=CARTESIAN_POINT('',(-3.98237715500557,0.,-62.1953289862216));
#327=CARTESIAN_POINT('',(-3.99439024392327,0.,-62.1142991538189));
#328=CARTESIAN_POINT('',(-3.99920035453114,0.,-62.0490029030389));
#329=CARTESIAN_POINT('',(-4.00010940131903,0.,-62.007421975262));
#330=CARTESIAN_POINT('',(-3.99975196981569,0.,-59.1577398233992));
#331=CARTESIAN_POINT('',(-3.99925746239818,0.,-53.4911022455534));
#332=CARTESIAN_POINT('',(-3.99876372764851,0.,-47.8333187889229));
#333=CARTESIAN_POINT('',(-3.99851647393976,0.,-45.));
#334=CARTESIAN_POINT('',(-2.66567764929317,0.,-45.));
#335=CARTESIAN_POINT('',(-1.33283882464659,0.,-45.));
#336=CARTESIAN_POINT('',(0.,0.,-45.));
#337=CARTESIAN_POINT('',(0.,0.,-35.6));
#338=CARTESIAN_POINT('',(0.,0.,-63.));
#339=CARTESIAN_POINT('',(0.,0.,0.));
#340=CARTESIAN_POINT('',(0.,0.,0.));
#341=CARTESIAN_POINT('',(-3.29999999999999,0.,0.));
#342=CARTESIAN_POINT('',(0.,0.,-0.700000000000006));
#343=CARTESIAN_POINT('',(-4.,0.,-0.700000000000006));
#344=CARTESIAN_POINT('',(0.,0.,-0.700000000000006));
#345=CARTESIAN_POINT('',(3.29999999999999,0.,1.06319171702566E-16));
#346=CARTESIAN_POINT('',(0.,0.,-44.1314644933999));
#347=CARTESIAN_POINT('',(-3.79999999999999,0.,-44.1314644933999));
#348=CARTESIAN_POINT('',(0.,0.,-45.));
#349=CARTESIAN_POINT('',(-3.99851647393976,0.,-45.));
#350=CARTESIAN_POINT('',(-3.99851647393976,0.,-45.));
#351=CARTESIAN_POINT('',(-3.99851647393976,7.99703294787952,-45.));
#352=CARTESIAN_POINT('',(3.99851647393976,7.99703294787952,-45.));
#353=CARTESIAN_POINT('',(3.99851647393976,0.,-45.));
#354=CARTESIAN_POINT('',(3.99851647393976,-7.99703294787952,-45.));
#355=CARTESIAN_POINT('',(-3.99851647393976,-7.99703294787952,-45.));
#356=CARTESIAN_POINT('',(-3.99851647393976,0.,-45.));
#357=CARTESIAN_POINT('',(-3.99849011631832,0.,-44.6979639074771));
#358=CARTESIAN_POINT('',(-3.99849011631832,7.99698023263664,-44.6979639074771));
#359=CARTESIAN_POINT('',(3.99849011631832,7.99698023263664,-44.6979639074771));
#360=CARTESIAN_POINT('',(3.99849011631832,0.,-44.6979639074771));
#361=CARTESIAN_POINT('',(3.99849011631832,-7.99698023263664,-44.6979639074771));
#362=CARTESIAN_POINT('',(-3.99849011631832,-7.99698023263664,-44.6979639074771));
#363=CARTESIAN_POINT('',(-3.99849011631832,0.,-44.6979639074771));
#364=CARTESIAN_POINT('',(-3.93119089343631,0.,-44.4035210157635));
#365=CARTESIAN_POINT('',(-3.93119089343631,7.86238178687263,-44.4035210157635));
#366=CARTESIAN_POINT('',(3.93119089343631,7.86238178687263,-44.4035210157635));
#367=CARTESIAN_POINT('',(3.93119089343631,0.,-44.4035210157635));
#368=CARTESIAN_POINT('',(3.93119089343631,-7.86238178687263,-44.4035210157635));
#369=CARTESIAN_POINT('',(-3.93119089343631,-7.86238178687263,-44.4035210157635));
#370=CARTESIAN_POINT('',(-3.93119089343631,0.,-44.4035210157635));
#371=CARTESIAN_POINT('',(-3.8,0.,-44.1314644933999));
#372=CARTESIAN_POINT('',(-3.8,7.59999999999999,-44.1314644933999));
#373=CARTESIAN_POINT('',(3.8,7.59999999999999,-44.1314644933999));
#374=CARTESIAN_POINT('',(3.8,0.,-44.1314644933999));
#375=CARTESIAN_POINT('',(3.8,-7.59999999999999,-44.1314644933999));
#376=CARTESIAN_POINT('',(-3.8,-7.59999999999999,-44.1314644933999));
#377=CARTESIAN_POINT('',(-3.8,0.,-44.1314644933999));
#378=CARTESIAN_POINT('',(0.,0.,-37.));
#379=CARTESIAN_POINT('',(-3.79999999999999,0.,-37.));
#380=CARTESIAN_POINT('',(0.,0.,-36.));
#381=CARTESIAN_POINT('',(0.,0.,-35.6));
#382=CARTESIAN_POINT('',(-4.,0.,-35.6));
#383=CARTESIAN_POINT('',(0.,0.,-37.));
#384=CARTESIAN_POINT('',(0.,0.,-36.));
#385=CARTESIAN_POINT('',(0.,0.,-45.));
#386=CARTESIAN_POINT('',(0.,0.,-63.));
#387=CARTESIAN_POINT('',(0.4,4.89858719658941E-17,-63.));
#388=CARTESIAN_POINT('',(0.,0.,-63.));
#389=CARTESIAN_POINT('',(-3.,0.,-63.));
#390=CARTESIAN_POINT('',(-4.44089209850063E-15,0.,-63.));
#391=CARTESIAN_POINT('',(0.,0.,-61.9999127335375));
#392=CARTESIAN_POINT('',(-3.99999999619228,0.,-61.9999127335375));
#393=CARTESIAN_POINT('',(0.,0.,-62.));
#394=CARTESIAN_POINT('',(0.,0.,-45.));
#395=CARTESIAN_POINT('',(-3.99851647393975,0.,-45.));
#396=CARTESIAN_POINT('',(0.,0.,-61.9999127335375));
#397=CARTESIAN_POINT('',(0.,0.,-45.));
#398=CARTESIAN_POINT('',(0.,0.,-62.9));
#399=CARTESIAN_POINT('',(0.4,4.89858719658941E-17,-62.9));
#400=CARTESIAN_POINT('',(0.,0.,-62.9));
#401=CARTESIAN_POINT('',(0.,0.,-62.9));
#402=MECHANICAL_DESIGN_GEOMETRIC_PRESENTATION_REPRESENTATION('',(#186,#187,
#188,#189,#190,#191,#192,#193,#194,#195),#403);
#403=(
GEOMETRIC_REPRESENTATION_CONTEXT(3)
GLOBAL_UNCERTAINTY_ASSIGNED_CONTEXT((#404))
GLOBAL_UNIT_ASSIGNED_CONTEXT((#410,#406,#405))
REPRESENTATION_CONTEXT('S4651-080E2R100','TOP_LEVEL_ASSEMBLY_PART')
);
#404=UNCERTAINTY_MEASURE_WITH_UNIT(LENGTH_MEASURE(0.0254),#410,
'DISTANCE_ACCURACY_VALUE','Maximum Tolerance applied to model');
#405=(
NAMED_UNIT(*)
SI_UNIT($,.STERADIAN.)
SOLID_ANGLE_UNIT()
);
#406=(
CONVERSION_BASED_UNIT('DEGREE',#408)
NAMED_UNIT(#407)
PLANE_ANGLE_UNIT()
);
#407=DIMENSIONAL_EXPONENTS(0.,0.,0.,0.,0.,0.,0.);
#408=PLANE_ANGLE_MEASURE_WITH_UNIT(PLANE_ANGLE_MEASURE(0.0174532925),#409);
#409=(
NAMED_UNIT(*)
PLANE_ANGLE_UNIT()
SI_UNIT($,.RADIAN.)
);
#410=(
LENGTH_UNIT()
NAMED_UNIT(*)
SI_UNIT(.MILLI.,.METRE.)
);
ENDSEC;
END-ISO-10303-21;
