ISO-10303-21;
HEADER;
/* Generated by software containing ST-Developer
 * from STEP Tools, Inc. (www.steptools.com) 
 */
/* OPTION: using custom schema-name function */

FILE_DESCRIPTION(
/* description */ (''),
/* implementation_level */ '2;1');

FILE_NAME(
/* name */ 'S4651-100E2R100.0Z5AC_Basic.stp',
/* time_stamp */ '2024-05-10T08:44:04+05:00',
/* author */ (''),
/* organization */ (''),
/* preprocessor_version */ 'ST-DEVELOPER v18.102',
/* originating_system */ 'SIEMENS PLM Software NX2206.8101',
/* authorisation */ '');

FILE_SCHEMA (('AUTOMOTIVE_DESIGN { 1 0 10303 214 3 1 1 1 }'));
ENDSEC;

DATA;
#10=CONSTRUCTIVE_GEOMETRY_REPRESENTATION_RELATIONSHIP(
'supplemental geometry','',#34,#11);
#11=CONSTRUCTIVE_GEOMETRY_REPRESENTATION('supplemental geometry',(#207,
#208,#209),#364);
#12=GEOMETRICALLY_BOUNDED_WIREFRAME_SHAPE_REPRESENTATION(
'inpu2ED47807944l-None',(#35),#364);
#13=PROPERTY_DEFINITION_REPRESENTATION(#17,#15);
#14=PROPERTY_DEFINITION_REPRESENTATION(#18,#16);
#15=REPRESENTATION('',(#19),#364);
#16=REPRESENTATION('',(#20),#364);
#17=PROPERTY_DEFINITION('pmi validation property','',#25);
#18=PROPERTY_DEFINITION('pmi validation property','',#25);
#19=VALUE_REPRESENTATION_ITEM('number of annotations',COUNT_MEASURE(0.));
#20=VALUE_REPRESENTATION_ITEM('number of views',COUNT_MEASURE(0.));
#21=SHAPE_REPRESENTATION_RELATIONSHIP('None',
'relationship between inpu2ED47807944l-None and inpu2ED47807944l-None',
#34,#23);
#22=SHAPE_REPRESENTATION_RELATIONSHIP('None',
'relationship between inpu2ED47807944l-None and inpu2ED47807944l-None',
#34,#12);
#23=ADVANCED_BREP_SHAPE_REPRESENTATION('inpu2ED47807944l-None',(#46,#47),
#364);
#24=SHAPE_DEFINITION_REPRESENTATION(#25,#34);
#25=PRODUCT_DEFINITION_SHAPE('','',#26);
#26=PRODUCT_DEFINITION(' ','',#28,#27);
#27=PRODUCT_DEFINITION_CONTEXT('part definition',#33,'design');
#28=PRODUCT_DEFINITION_FORMATION_WITH_SPECIFIED_SOURCE(' ',' ',#30,
 .NOT_KNOWN.);
#29=PRODUCT_RELATED_PRODUCT_CATEGORY('part','',(#30));
#30=PRODUCT('inpu2ED47807944l','inpu2ED47807944l',' ',(#31));
#31=PRODUCT_CONTEXT(' ',#33,'mechanical');
#32=APPLICATION_PROTOCOL_DEFINITION('international standard',
'automotive_design',2010,#33);
#33=APPLICATION_CONTEXT(
'core data for automotive mechanical design processes');
#34=SHAPE_REPRESENTATION('inpu2ED47807944l-None',(#206),#364);
#35=GEOMETRIC_CURVE_SET('None',(#291,#184));
#36=SURFACE_STYLE_USAGE(.BOTH.,#38);
#37=SURFACE_STYLE_USAGE(.BOTH.,#39);
#38=SURFACE_SIDE_STYLE('',(#40));
#39=SURFACE_SIDE_STYLE('',(#41));
#40=SURFACE_STYLE_FILL_AREA(#42);
#41=SURFACE_STYLE_FILL_AREA(#43);
#42=FILL_AREA_STYLE('',(#44));
#43=FILL_AREA_STYLE('',(#45));
#44=FILL_AREA_STYLE_COLOUR('',#204);
#45=FILL_AREA_STYLE_COLOUR('',#205);
#46=MANIFOLD_SOLID_BREP('NOCUT',#48);
#47=MANIFOLD_SOLID_BREP('CUT',#49);
#48=CLOSED_SHELL('',(#65,#66,#67,#68,#69,#70,#71));
#49=CLOSED_SHELL('',(#72,#73,#74,#75,#76,#77));
#50=CYLINDRICAL_SURFACE('',#218,4.74999999999999);
#51=CYLINDRICAL_SURFACE('',#221,5.);
#52=CYLINDRICAL_SURFACE('',#232,0.5);
#53=TOROIDAL_SURFACE('',#216,2.99808014924109,2.);
#54=TOROIDAL_SURFACE('',#220,9.74999999999999,5.);
#55=TOROIDAL_SURFACE('',#227,4.,1.00000000000001);
#56=PLANE('',#213);
#57=PLANE('',#222);
#58=PLANE('',#225);
#59=PLANE('',#230);
#60=PLANE('',#233);
#61=FACE_OUTER_BOUND('',#100,.T.);
#62=FACE_OUTER_BOUND('',#109,.T.);
#63=FACE_OUTER_BOUND('',#116,.T.);
#64=FACE_OUTER_BOUND('',#119,.T.);
#65=ADVANCED_FACE('',(#80,#81),#78,.T.);
#66=ADVANCED_FACE('',(#61),#56,.T.);
#67=ADVANCED_FACE('',(#82,#83),#53,.T.);
#68=ADVANCED_FACE('',(#84,#85),#50,.T.);
#69=ADVANCED_FACE('',(#86,#87),#54,.F.);
#70=ADVANCED_FACE('',(#88,#89),#51,.T.);
#71=ADVANCED_FACE('',(#62),#57,.T.);
#72=ADVANCED_FACE('',(#90,#91),#58,.T.);
#73=ADVANCED_FACE('',(#92,#93),#55,.T.);
#74=ADVANCED_FACE('',(#94,#95),#79,.T.);
#75=ADVANCED_FACE('',(#63),#59,.F.);
#76=ADVANCED_FACE('',(#96,#97),#52,.F.);
#77=ADVANCED_FACE('',(#64),#60,.T.);
#78=CONICAL_SURFACE('',#212,5.,44.9999999999999);
#79=CONICAL_SURFACE('',#229,4.9999999961923,0.00500000000004191);
#80=FACE_BOUND('',#98,.T.);
#81=FACE_BOUND('',#99,.T.);
#82=FACE_BOUND('',#101,.T.);
#83=FACE_BOUND('',#102,.T.);
#84=FACE_BOUND('',#103,.T.);
#85=FACE_BOUND('',#104,.T.);
#86=FACE_BOUND('',#105,.T.);
#87=FACE_BOUND('',#106,.T.);
#88=FACE_BOUND('',#107,.T.);
#89=FACE_BOUND('',#108,.T.);
#90=FACE_BOUND('',#110,.T.);
#91=FACE_BOUND('',#111,.T.);
#92=FACE_BOUND('',#112,.T.);
#93=FACE_BOUND('',#113,.T.);
#94=FACE_BOUND('',#114,.T.);
#95=FACE_BOUND('',#115,.T.);
#96=FACE_BOUND('',#117,.T.);
#97=FACE_BOUND('',#118,.T.);
#98=EDGE_LOOP('',(#120));
#99=EDGE_LOOP('',(#121));
#100=EDGE_LOOP('',(#122));
#101=EDGE_LOOP('',(#123));
#102=EDGE_LOOP('',(#124));
#103=EDGE_LOOP('',(#125));
#104=EDGE_LOOP('',(#126));
#105=EDGE_LOOP('',(#127));
#106=EDGE_LOOP('',(#128));
#107=EDGE_LOOP('',(#129));
#108=EDGE_LOOP('',(#130));
#109=EDGE_LOOP('',(#131));
#110=EDGE_LOOP('',(#132));
#111=EDGE_LOOP('',(#133));
#112=EDGE_LOOP('',(#134));
#113=EDGE_LOOP('',(#135));
#114=EDGE_LOOP('',(#136));
#115=EDGE_LOOP('',(#137));
#116=EDGE_LOOP('',(#138));
#117=EDGE_LOOP('',(#139));
#118=EDGE_LOOP('',(#140));
#119=EDGE_LOOP('',(#141));
#120=ORIENTED_EDGE('',*,*,#153,.T.);
#121=ORIENTED_EDGE('',*,*,#154,.F.);
#122=ORIENTED_EDGE('',*,*,#153,.F.);
#123=ORIENTED_EDGE('',*,*,#155,.T.);
#124=ORIENTED_EDGE('',*,*,#156,.F.);
#125=ORIENTED_EDGE('',*,*,#157,.T.);
#126=ORIENTED_EDGE('',*,*,#155,.F.);
#127=ORIENTED_EDGE('',*,*,#158,.T.);
#128=ORIENTED_EDGE('',*,*,#157,.F.);
#129=ORIENTED_EDGE('',*,*,#154,.T.);
#130=ORIENTED_EDGE('',*,*,#158,.F.);
#131=ORIENTED_EDGE('',*,*,#156,.T.);
#132=ORIENTED_EDGE('',*,*,#159,.F.);
#133=ORIENTED_EDGE('',*,*,#160,.T.);
#134=ORIENTED_EDGE('',*,*,#161,.T.);
#135=ORIENTED_EDGE('',*,*,#160,.F.);
#136=ORIENTED_EDGE('',*,*,#162,.F.);
#137=ORIENTED_EDGE('',*,*,#161,.F.);
#138=ORIENTED_EDGE('',*,*,#162,.T.);
#139=ORIENTED_EDGE('',*,*,#163,.T.);
#140=ORIENTED_EDGE('',*,*,#159,.T.);
#141=ORIENTED_EDGE('',*,*,#163,.F.);
#142=VERTEX_POINT('',#329);
#143=VERTEX_POINT('',#331);
#144=VERTEX_POINT('',#335);
#145=VERTEX_POINT('',#337);
#146=VERTEX_POINT('',#340);
#147=VERTEX_POINT('',#343);
#148=VERTEX_POINT('',#348);
#149=VERTEX_POINT('',#350);
#150=VERTEX_POINT('',#353);
#151=VERTEX_POINT('',#356);
#152=VERTEX_POINT('',#360);
#153=EDGE_CURVE('',#142,#142,#164,.T.);
#154=EDGE_CURVE('',#143,#143,#165,.T.);
#155=EDGE_CURVE('',#144,#144,#166,.T.);
#156=EDGE_CURVE('',#145,#145,#167,.T.);
#157=EDGE_CURVE('',#146,#146,#168,.T.);
#158=EDGE_CURVE('',#147,#147,#169,.T.);
#159=EDGE_CURVE('',#148,#148,#170,.T.);
#160=EDGE_CURVE('',#149,#149,#171,.T.);
#161=EDGE_CURVE('',#150,#150,#172,.T.);
#162=EDGE_CURVE('',#151,#151,#173,.T.);
#163=EDGE_CURVE('',#152,#152,#174,.T.);
#164=CIRCLE('',#210,4.29999999999999);
#165=CIRCLE('',#211,5.);
#166=CIRCLE('',#214,4.74999999999999);
#167=CIRCLE('',#215,4.99808014162565);
#168=CIRCLE('',#217,4.74999999999999);
#169=CIRCLE('',#219,5.);
#170=CIRCLE('',#223,0.5);
#171=CIRCLE('',#224,4.);
#172=CIRCLE('',#226,4.9999999961923);
#173=CIRCLE('',#228,4.99808014162565);
#174=CIRCLE('',#231,0.5);
#175=CURVE_STYLE('',#180,POSITIVE_LENGTH_MEASURE(0.18),#179);
#176=CURVE_STYLE('',#181,POSITIVE_LENGTH_MEASURE(0.18),#203);
#177=CURVE_STYLE('',#182,POSITIVE_LENGTH_MEASURE(0.18),#203);
#178=CURVE_STYLE('',#183,POSITIVE_LENGTH_MEASURE(0.18),#203);
#179=DRAUGHTING_PRE_DEFINED_COLOUR('blue');
#180=DRAUGHTING_PRE_DEFINED_CURVE_FONT('continuous');
#181=DRAUGHTING_PRE_DEFINED_CURVE_FONT('continuous');
#182=DRAUGHTING_PRE_DEFINED_CURVE_FONT('continuous');
#183=DRAUGHTING_PRE_DEFINED_CURVE_FONT('continuous');
#184=B_SPLINE_CURVE_WITH_KNOTS('CUTTING PART LINE',3,(#292,#293,#294,#295,
#296,#297,#298,#299,#300,#301,#302,#303,#304,#305,#306,#307,#308,#309,#310,
#311,#312,#313,#314,#315,#316,#317,#318,#319,#320,#321,#322,#323,#324),
 .UNSPECIFIED.,.T.,.F.,(4,3,1,1,1,1,1,1,1,1,1,1,1,1,1,1,1,1,1,1,1,1,1,1,
1,3,4),(0.,0.4139007557,0.44989212575,0.485433603674375,0.4858834958,0.486766906,
0.4876503162,0.4894171366,0.491183957,0.4929507774,0.4947175978,0.4964844182,
0.4982512386,0.500018059,0.5017848794,0.5035516998,0.5053185202,0.5070853406,
0.508852161,0.5106189814,0.5123858018,0.513269212,0.5141526222,0.51464750157725,
0.7121043731,0.910056124,1.),.UNSPECIFIED.);
#185=PRESENTATION_LAYER_ASSIGNMENT('1','Layer 1',(#291,#184,#207,#208,#209,
#46,#47));
#186=STYLED_ITEM('',(#193),#291);
#187=STYLED_ITEM('',(#194),#184);
#188=STYLED_ITEM('',(#195),#207);
#189=STYLED_ITEM('',(#196),#208);
#190=STYLED_ITEM('',(#197),#209);
#191=STYLED_ITEM('',(#198),#46);
#192=STYLED_ITEM('',(#199),#47);
#193=PRESENTATION_STYLE_ASSIGNMENT((#200));
#194=PRESENTATION_STYLE_ASSIGNMENT((#175));
#195=PRESENTATION_STYLE_ASSIGNMENT((#176));
#196=PRESENTATION_STYLE_ASSIGNMENT((#177));
#197=PRESENTATION_STYLE_ASSIGNMENT((#178));
#198=PRESENTATION_STYLE_ASSIGNMENT((#36));
#199=PRESENTATION_STYLE_ASSIGNMENT((#37));
#200=POINT_STYLE('',#201,POSITIVE_LENGTH_MEASURE(3.),#202);
#201=PRE_DEFINED_POINT_MARKER_SYMBOL('plus');
#202=COLOUR_RGB('Medium Royal',0.301960784313725,0.427450980392157,0.701960784313725);
#203=COLOUR_RGB('Pale Maroon',0.811764705882353,0.603921568627451,0.611764705882353);
#204=COLOUR_RGB('medium gray',0.490196078431373,0.490196078431373,0.490196078431373);
#205=COLOUR_RGB('light gray',0.8,0.8,0.8);
#206=AXIS2_PLACEMENT_3D('',#290,#234,#235);
#207=AXIS2_PLACEMENT_3D('MCS',#325,#236,#237);
#208=AXIS2_PLACEMENT_3D('CIP',#326,#238,#239);
#209=AXIS2_PLACEMENT_3D('PCS',#327,#240,#241);
#210=AXIS2_PLACEMENT_3D('',#328,#242,#243);
#211=AXIS2_PLACEMENT_3D('',#330,#244,#245);
#212=AXIS2_PLACEMENT_3D('',#332,#246,#247);
#213=AXIS2_PLACEMENT_3D('',#333,#248,#249);
#214=AXIS2_PLACEMENT_3D('',#334,#250,#251);
#215=AXIS2_PLACEMENT_3D('',#336,#252,#253);
#216=AXIS2_PLACEMENT_3D('',#338,#254,#255);
#217=AXIS2_PLACEMENT_3D('',#339,#256,#257);
#218=AXIS2_PLACEMENT_3D('',#341,#258,#259);
#219=AXIS2_PLACEMENT_3D('',#342,#260,#261);
#220=AXIS2_PLACEMENT_3D('',#344,#262,#263);
#221=AXIS2_PLACEMENT_3D('',#345,#264,#265);
#222=AXIS2_PLACEMENT_3D('',#346,#266,#267);
#223=AXIS2_PLACEMENT_3D('',#347,#268,#269);
#224=AXIS2_PLACEMENT_3D('',#349,#270,#271);
#225=AXIS2_PLACEMENT_3D('',#351,#272,#273);
#226=AXIS2_PLACEMENT_3D('',#352,#274,#275);
#227=AXIS2_PLACEMENT_3D('',#354,#276,#277);
#228=AXIS2_PLACEMENT_3D('',#355,#278,#279);
#229=AXIS2_PLACEMENT_3D('',#357,#280,#281);
#230=AXIS2_PLACEMENT_3D('',#358,#282,#283);
#231=AXIS2_PLACEMENT_3D('',#359,#284,#285);
#232=AXIS2_PLACEMENT_3D('',#361,#286,#287);
#233=AXIS2_PLACEMENT_3D('',#362,#288,#289);
#234=DIRECTION('',(0.,0.,1.));
#235=DIRECTION('',(1.,0.,0.));
#236=DIRECTION('',(0.,0.,1.));
#237=DIRECTION('',(1.,0.,0.));
#238=DIRECTION('',(0.,0.,1.));
#239=DIRECTION('',(1.,0.,0.));
#240=DIRECTION('',(0.,0.,1.));
#241=DIRECTION('',(1.,0.,0.));
#242=DIRECTION('',(0.,0.,-1.));
#243=DIRECTION('',(-1.,0.,0.));
#244=DIRECTION('',(0.,0.,-1.));
#245=DIRECTION('',(-1.,0.,0.));
#246=DIRECTION('',(0.,0.,-1.));
#247=DIRECTION('',(-1.,0.,8.28524645242657E-17));
#248=DIRECTION('',(0.,0.,1.));
#249=DIRECTION('',(1.,0.,0.));
#250=DIRECTION('',(0.,0.,-1.));
#251=DIRECTION('',(-1.,0.,0.));
#252=DIRECTION('',(0.,0.,-1.));
#253=DIRECTION('',(-1.,0.,0.));
#254=DIRECTION('',(0.,0.,-1.));
#255=DIRECTION('',(-1.,0.,0.));
#256=DIRECTION('',(0.,0.,-1.));
#257=DIRECTION('',(-1.,0.,0.));
#258=DIRECTION('',(0.,0.,-1.));
#259=DIRECTION('',(-1.,0.,0.));
#260=DIRECTION('',(0.,0.,-1.));
#261=DIRECTION('',(-1.,0.,0.));
#262=DIRECTION('',(0.,0.,-1.));
#263=DIRECTION('',(-1.,0.,0.));
#264=DIRECTION('',(0.,0.,-1.));
#265=DIRECTION('',(-1.,0.,0.));
#266=DIRECTION('',(0.,0.,-1.));
#267=DIRECTION('',(-1.,0.,0.));
#268=DIRECTION('',(0.,0.,-1.));
#269=DIRECTION('',(1.,1.22464679914735E-16,0.));
#270=DIRECTION('',(0.,0.,-1.));
#271=DIRECTION('',(-1.,0.,0.));
#272=DIRECTION('',(0.,0.,-1.));
#273=DIRECTION('',(-1.,0.,0.));
#274=DIRECTION('',(0.,0.,-1.));
#275=DIRECTION('',(-1.,0.,0.));
#276=DIRECTION('',(0.,0.,-1.));
#277=DIRECTION('',(-1.,0.,0.));
#278=DIRECTION('',(0.,0.,1.));
#279=DIRECTION('',(-1.,0.,0.));
#280=DIRECTION('',(0.,0.,-1.));
#281=DIRECTION('',(-1.,0.,-1.09117837012245E-14));
#282=DIRECTION('',(0.,0.,-1.));
#283=DIRECTION('',(-1.,0.,0.));
#284=DIRECTION('',(0.,0.,1.));
#285=DIRECTION('',(1.,1.22464679914735E-16,0.));
#286=DIRECTION('',(0.,0.,-1.));
#287=DIRECTION('',(-1.,0.,0.));
#288=DIRECTION('',(0.,0.,-1.));
#289=DIRECTION('',(-1.,0.,0.));
#290=CARTESIAN_POINT('',(0.,0.,0.));
#291=CARTESIAN_POINT('CRP',(-5.,0.,-75.));
#292=CARTESIAN_POINT('',(0.,0.,-52.));
#293=CARTESIAN_POINT('',(0.,0.,-59.6666666666667));
#294=CARTESIAN_POINT('',(0.,0.,-67.3333333333333));
#295=CARTESIAN_POINT('',(0.,0.,-75.));
#296=CARTESIAN_POINT('',(-0.666666666666667,0.,-75.));
#297=CARTESIAN_POINT('',(-1.99166666666667,0.,-75.));
#298=CARTESIAN_POINT('',(-3.325,0.,-75.));
#299=CARTESIAN_POINT('',(-4.00803003906952,0.,-75.0001023532983));
#300=CARTESIAN_POINT('',(-4.04909009956367,0.,-74.9991960744139));
#301=CARTESIAN_POINT('',(-4.11438593041588,0.,-74.9943802656432));
#302=CARTESIAN_POINT('',(-4.19541471411477,0.,-74.982360105581));
#303=CARTESIAN_POINT('',(-4.29076709411468,0.,-74.9584741934628));
#304=CARTESIAN_POINT('',(-4.38331891857867,0.,-74.9253566308124));
#305=CARTESIAN_POINT('',(-4.47217876057259,0.,-74.8833263839707));
#306=CARTESIAN_POINT('',(-4.55649076046396,0.,-74.8327882810437));
#307=CARTESIAN_POINT('',(-4.63544285229437,0.,-74.7742290772296));
#308=CARTESIAN_POINT('',(-4.70827460596448,0.,-74.7082127999977));
#309=CARTESIAN_POINT('',(-4.77428452705066,0.,-74.6353752857376));
#310=CARTESIAN_POINT('',(-4.83283684083248,0.,-74.5564180838918));
#311=CARTESIAN_POINT('',(-4.88336758595562,0.,-74.4721016740488));
#312=CARTESIAN_POINT('',(-4.92539007816686,0.,-74.3832381645397));
#313=CARTESIAN_POINT('',(-4.9584995640325,0.,-74.2906834503529));
#314=CARTESIAN_POINT('',(-4.98237715500557,0.,-74.1953289862216));
#315=CARTESIAN_POINT('',(-4.99439024392327,0.,-74.1142991538189));
#316=CARTESIAN_POINT('',(-4.99920035453114,0.,-74.0490029030389));
#317=CARTESIAN_POINT('',(-5.0001132124077,0.,-74.007109465909));
#318=CARTESIAN_POINT('',(-4.99967922049178,0.,-70.3240939809756));
#319=CARTESIAN_POINT('',(-4.99903926896957,0.,-62.9907897364631));
#320=CARTESIAN_POINT('',(-4.99840011738676,0.,-55.6666521222563));
#321=CARTESIAN_POINT('',(-4.99808014162565,0.,-52.));
#322=CARTESIAN_POINT('',(-3.33205342775044,0.,-52.));
#323=CARTESIAN_POINT('',(-1.66602671387522,0.,-52.));
#324=CARTESIAN_POINT('',(0.,0.,-52.));
#325=CARTESIAN_POINT('',(0.,0.,-40.));
#326=CARTESIAN_POINT('',(0.,0.,-75.));
#327=CARTESIAN_POINT('',(0.,0.,0.));
#328=CARTESIAN_POINT('',(0.,0.,0.));
#329=CARTESIAN_POINT('',(-4.29999999999999,0.,0.));
#330=CARTESIAN_POINT('',(0.,0.,-0.700000000000006));
#331=CARTESIAN_POINT('',(-5.,0.,-0.700000000000006));
#332=CARTESIAN_POINT('',(0.,0.,-0.700000000000006));
#333=CARTESIAN_POINT('',(4.29999999999999,0.,1.06319171702566E-16));
#334=CARTESIAN_POINT('',(0.,0.,-51.0354067699287));
#335=CARTESIAN_POINT('',(-4.74999999999999,0.,-51.0354067699287));
#336=CARTESIAN_POINT('',(0.,0.,-52.));
#337=CARTESIAN_POINT('',(-4.99808014162565,0.,-52.));
#338=CARTESIAN_POINT('',(0.,0.,-52.000174532925));
#339=CARTESIAN_POINT('',(0.,0.,-42.));
#340=CARTESIAN_POINT('',(-4.74999999999999,0.,-42.));
#341=CARTESIAN_POINT('',(0.,0.,-40.));
#342=CARTESIAN_POINT('',(0.,0.,-40.4387505004004));
#343=CARTESIAN_POINT('',(-5.,0.,-40.4387505004004));
#344=CARTESIAN_POINT('',(0.,0.,-42.));
#345=CARTESIAN_POINT('',(0.,0.,-40.));
#346=CARTESIAN_POINT('',(0.,0.,-52.));
#347=CARTESIAN_POINT('',(0.,0.,-75.));
#348=CARTESIAN_POINT('',(0.5,6.12323399573677E-17,-75.));
#349=CARTESIAN_POINT('',(0.,0.,-75.));
#350=CARTESIAN_POINT('',(-4.,0.,-75.));
#351=CARTESIAN_POINT('',(-2.66453525910038E-15,0.,-75.));
#352=CARTESIAN_POINT('',(0.,0.,-73.9999127335375));
#353=CARTESIAN_POINT('',(-4.9999999961923,0.,-73.9999127335375));
#354=CARTESIAN_POINT('',(0.,0.,-74.));
#355=CARTESIAN_POINT('',(0.,0.,-52.));
#356=CARTESIAN_POINT('',(-4.99808014162565,0.,-52.));
#357=CARTESIAN_POINT('',(0.,0.,-73.9999127335375));
#358=CARTESIAN_POINT('',(0.,0.,-52.));
#359=CARTESIAN_POINT('',(0.,0.,-74.9));
#360=CARTESIAN_POINT('',(0.5,6.12323399573677E-17,-74.9));
#361=CARTESIAN_POINT('',(0.,0.,-74.9));
#362=CARTESIAN_POINT('',(0.,0.,-74.9));
#363=MECHANICAL_DESIGN_GEOMETRIC_PRESENTATION_REPRESENTATION('',(#186,#187,
#188,#189,#190,#191,#192),#364);
#364=(
GEOMETRIC_REPRESENTATION_CONTEXT(3)
GLOBAL_UNCERTAINTY_ASSIGNED_CONTEXT((#365))
GLOBAL_UNIT_ASSIGNED_CONTEXT((#371,#367,#366))
REPRESENTATION_CONTEXT('S4651-100E2R100','TOP_LEVEL_ASSEMBLY_PART')
);
#365=UNCERTAINTY_MEASURE_WITH_UNIT(LENGTH_MEASURE(2.E-5),#371,
'DISTANCE_ACCURACY_VALUE','Maximum Tolerance applied to model');
#366=(
NAMED_UNIT(*)
SI_UNIT($,.STERADIAN.)
SOLID_ANGLE_UNIT()
);
#367=(
CONVERSION_BASED_UNIT('DEGREE',#369)
NAMED_UNIT(#368)
PLANE_ANGLE_UNIT()
);
#368=DIMENSIONAL_EXPONENTS(0.,0.,0.,0.,0.,0.,0.);
#369=PLANE_ANGLE_MEASURE_WITH_UNIT(PLANE_ANGLE_MEASURE(0.0174532925),#370);
#370=(
NAMED_UNIT(*)
PLANE_ANGLE_UNIT()
SI_UNIT($,.RADIAN.)
);
#371=(
LENGTH_UNIT()
NAMED_UNIT(*)
SI_UNIT(.MILLI.,.METRE.)
);
ENDSEC;
END-ISO-10303-21;
