ISO-10303-21;
HEADER;
/* Generated by software containing ST-Developer
 * from STEP Tools, Inc. (www.steptools.com) 
 */
/* OPTION: using custom schema-name function */

FILE_DESCRIPTION(
/* description */ (''),
/* implementation_level */ '2;1');

FILE_NAME(
/* name */ 'S4651-100E4R050.0Z5AC_Basic.stp',
/* time_stamp */ '2024-05-10T08:43:38+05:00',
/* author */ (''),
/* organization */ (''),
/* preprocessor_version */ 'ST-DEVELOPER v18.102',
/* originating_system */ 'SIEMENS PLM Software NX2206.8101',
/* authorisation */ '');

FILE_SCHEMA (('AUTOMOTIVE_DESIGN { 1 0 10303 214 3 1 1 1 }'));
ENDSEC;

DATA;
#10=CONSTRUCTIVE_GEOMETRY_REPRESENTATION_RELATIONSHIP(
'supplemental geometry','',#34,#11);
#11=CONSTRUCTIVE_GEOMETRY_REPRESENTATION('supplemental geometry',(#207,
#208,#209),#364);
#12=GEOMETRICALLY_BOUNDED_WIREFRAME_SHAPE_REPRESENTATION(
'inpu2ED47807944y-None',(#35),#364);
#13=PROPERTY_DEFINITION_REPRESENTATION(#17,#15);
#14=PROPERTY_DEFINITION_REPRESENTATION(#18,#16);
#15=REPRESENTATION('',(#19),#364);
#16=REPRESENTATION('',(#20),#364);
#17=PROPERTY_DEFINITION('pmi validation property','',#25);
#18=PROPERTY_DEFINITION('pmi validation property','',#25);
#19=VALUE_REPRESENTATION_ITEM('number of annotations',COUNT_MEASURE(0.));
#20=VALUE_REPRESENTATION_ITEM('number of views',COUNT_MEASURE(0.));
#21=SHAPE_REPRESENTATION_RELATIONSHIP('None',
'relationship between inpu2ED47807944y-None and inpu2ED47807944y-None',
#34,#23);
#22=SHAPE_REPRESENTATION_RELATIONSHIP('None',
'relationship between inpu2ED47807944y-None and inpu2ED47807944y-None',
#34,#12);
#23=ADVANCED_BREP_SHAPE_REPRESENTATION('inpu2ED47807944y-None',(#46,#47),
#364);
#24=SHAPE_DEFINITION_REPRESENTATION(#25,#34);
#25=PRODUCT_DEFINITION_SHAPE('','',#26);
#26=PRODUCT_DEFINITION(' ','',#28,#27);
#27=PRODUCT_DEFINITION_CONTEXT('part definition',#33,'design');
#28=PRODUCT_DEFINITION_FORMATION_WITH_SPECIFIED_SOURCE(' ',' ',#30,
 .NOT_KNOWN.);
#29=PRODUCT_RELATED_PRODUCT_CATEGORY('part','',(#30));
#30=PRODUCT('inpu2ED47807944y','inpu2ED47807944y',' ',(#31));
#31=PRODUCT_CONTEXT(' ',#33,'mechanical');
#32=APPLICATION_PROTOCOL_DEFINITION('international standard',
'automotive_design',2010,#33);
#33=APPLICATION_CONTEXT(
'core data for automotive mechanical design processes');
#34=SHAPE_REPRESENTATION('inpu2ED47807944y-None',(#206),#364);
#35=GEOMETRIC_CURVE_SET('None',(#291,#184));
#36=SURFACE_STYLE_USAGE(.BOTH.,#38);
#37=SURFACE_STYLE_USAGE(.BOTH.,#39);
#38=SURFACE_SIDE_STYLE('',(#40));
#39=SURFACE_SIDE_STYLE('',(#41));
#40=SURFACE_STYLE_FILL_AREA(#42);
#41=SURFACE_STYLE_FILL_AREA(#43);
#42=FILL_AREA_STYLE('',(#44));
#43=FILL_AREA_STYLE('',(#45));
#44=FILL_AREA_STYLE_COLOUR('',#204);
#45=FILL_AREA_STYLE_COLOUR('',#205);
#46=MANIFOLD_SOLID_BREP('NOCUT',#48);
#47=MANIFOLD_SOLID_BREP('CUT',#49);
#48=CLOSED_SHELL('',(#65,#66,#67,#68,#69,#70,#71));
#49=CLOSED_SHELL('',(#72,#73,#74,#75,#76,#77));
#50=CYLINDRICAL_SURFACE('',#218,4.75);
#51=CYLINDRICAL_SURFACE('',#221,5.);
#52=CYLINDRICAL_SURFACE('',#232,0.5);
#53=TOROIDAL_SURFACE('',#216,2.99629118484939,2.);
#54=TOROIDAL_SURFACE('',#220,9.74999999999999,5.);
#55=TOROIDAL_SURFACE('',#227,4.5,0.500000000000014);
#56=PLANE('',#213);
#57=PLANE('',#222);
#58=PLANE('',#225);
#59=PLANE('',#230);
#60=PLANE('',#233);
#61=FACE_OUTER_BOUND('',#100,.T.);
#62=FACE_OUTER_BOUND('',#109,.T.);
#63=FACE_OUTER_BOUND('',#116,.T.);
#64=FACE_OUTER_BOUND('',#119,.T.);
#65=ADVANCED_FACE('',(#80,#81),#78,.T.);
#66=ADVANCED_FACE('',(#61),#56,.T.);
#67=ADVANCED_FACE('',(#82,#83),#53,.T.);
#68=ADVANCED_FACE('',(#84,#85),#50,.T.);
#69=ADVANCED_FACE('',(#86,#87),#54,.F.);
#70=ADVANCED_FACE('',(#88,#89),#51,.T.);
#71=ADVANCED_FACE('',(#62),#57,.T.);
#72=ADVANCED_FACE('',(#90,#91),#58,.T.);
#73=ADVANCED_FACE('',(#92,#93),#55,.T.);
#74=ADVANCED_FACE('',(#94,#95),#79,.T.);
#75=ADVANCED_FACE('',(#63),#59,.F.);
#76=ADVANCED_FACE('',(#96,#97),#52,.F.);
#77=ADVANCED_FACE('',(#64),#60,.T.);
#78=CONICAL_SURFACE('',#212,5.,44.9999999999999);
#79=CONICAL_SURFACE('',#229,4.99999999809616,0.00500000000002156);
#80=FACE_BOUND('',#98,.T.);
#81=FACE_BOUND('',#99,.T.);
#82=FACE_BOUND('',#101,.T.);
#83=FACE_BOUND('',#102,.T.);
#84=FACE_BOUND('',#103,.T.);
#85=FACE_BOUND('',#104,.T.);
#86=FACE_BOUND('',#105,.T.);
#87=FACE_BOUND('',#106,.T.);
#88=FACE_BOUND('',#107,.T.);
#89=FACE_BOUND('',#108,.T.);
#90=FACE_BOUND('',#110,.T.);
#91=FACE_BOUND('',#111,.T.);
#92=FACE_BOUND('',#112,.T.);
#93=FACE_BOUND('',#113,.T.);
#94=FACE_BOUND('',#114,.T.);
#95=FACE_BOUND('',#115,.T.);
#96=FACE_BOUND('',#117,.T.);
#97=FACE_BOUND('',#118,.T.);
#98=EDGE_LOOP('',(#120));
#99=EDGE_LOOP('',(#121));
#100=EDGE_LOOP('',(#122));
#101=EDGE_LOOP('',(#123));
#102=EDGE_LOOP('',(#124));
#103=EDGE_LOOP('',(#125));
#104=EDGE_LOOP('',(#126));
#105=EDGE_LOOP('',(#127));
#106=EDGE_LOOP('',(#128));
#107=EDGE_LOOP('',(#129));
#108=EDGE_LOOP('',(#130));
#109=EDGE_LOOP('',(#131));
#110=EDGE_LOOP('',(#132));
#111=EDGE_LOOP('',(#133));
#112=EDGE_LOOP('',(#134));
#113=EDGE_LOOP('',(#135));
#114=EDGE_LOOP('',(#136));
#115=EDGE_LOOP('',(#137));
#116=EDGE_LOOP('',(#138));
#117=EDGE_LOOP('',(#139));
#118=EDGE_LOOP('',(#140));
#119=EDGE_LOOP('',(#141));
#120=ORIENTED_EDGE('',*,*,#153,.T.);
#121=ORIENTED_EDGE('',*,*,#154,.F.);
#122=ORIENTED_EDGE('',*,*,#153,.F.);
#123=ORIENTED_EDGE('',*,*,#155,.T.);
#124=ORIENTED_EDGE('',*,*,#156,.F.);
#125=ORIENTED_EDGE('',*,*,#157,.T.);
#126=ORIENTED_EDGE('',*,*,#155,.F.);
#127=ORIENTED_EDGE('',*,*,#158,.T.);
#128=ORIENTED_EDGE('',*,*,#157,.F.);
#129=ORIENTED_EDGE('',*,*,#154,.T.);
#130=ORIENTED_EDGE('',*,*,#158,.F.);
#131=ORIENTED_EDGE('',*,*,#156,.T.);
#132=ORIENTED_EDGE('',*,*,#159,.F.);
#133=ORIENTED_EDGE('',*,*,#160,.T.);
#134=ORIENTED_EDGE('',*,*,#161,.T.);
#135=ORIENTED_EDGE('',*,*,#160,.F.);
#136=ORIENTED_EDGE('',*,*,#162,.F.);
#137=ORIENTED_EDGE('',*,*,#161,.F.);
#138=ORIENTED_EDGE('',*,*,#162,.T.);
#139=ORIENTED_EDGE('',*,*,#163,.T.);
#140=ORIENTED_EDGE('',*,*,#159,.T.);
#141=ORIENTED_EDGE('',*,*,#163,.F.);
#142=VERTEX_POINT('',#329);
#143=VERTEX_POINT('',#331);
#144=VERTEX_POINT('',#335);
#145=VERTEX_POINT('',#337);
#146=VERTEX_POINT('',#340);
#147=VERTEX_POINT('',#343);
#148=VERTEX_POINT('',#348);
#149=VERTEX_POINT('',#350);
#150=VERTEX_POINT('',#353);
#151=VERTEX_POINT('',#356);
#152=VERTEX_POINT('',#360);
#153=EDGE_CURVE('',#142,#142,#164,.T.);
#154=EDGE_CURVE('',#143,#143,#165,.T.);
#155=EDGE_CURVE('',#144,#144,#166,.T.);
#156=EDGE_CURVE('',#145,#145,#167,.T.);
#157=EDGE_CURVE('',#146,#146,#168,.T.);
#158=EDGE_CURVE('',#147,#147,#169,.T.);
#159=EDGE_CURVE('',#148,#148,#170,.T.);
#160=EDGE_CURVE('',#149,#149,#171,.T.);
#161=EDGE_CURVE('',#150,#150,#172,.T.);
#162=EDGE_CURVE('',#151,#151,#173,.T.);
#163=EDGE_CURVE('',#152,#152,#174,.T.);
#164=CIRCLE('',#210,4.29999999999999);
#165=CIRCLE('',#211,5.);
#166=CIRCLE('',#214,4.75);
#167=CIRCLE('',#215,4.99629117723396);
#168=CIRCLE('',#217,4.74999999999999);
#169=CIRCLE('',#219,5.);
#170=CIRCLE('',#223,0.5);
#171=CIRCLE('',#224,4.5);
#172=CIRCLE('',#226,4.99999999809616);
#173=CIRCLE('',#228,4.99629117723396);
#174=CIRCLE('',#231,0.5);
#175=CURVE_STYLE('',#180,POSITIVE_LENGTH_MEASURE(0.18),#179);
#176=CURVE_STYLE('',#181,POSITIVE_LENGTH_MEASURE(0.18),#203);
#177=CURVE_STYLE('',#182,POSITIVE_LENGTH_MEASURE(0.18),#203);
#178=CURVE_STYLE('',#183,POSITIVE_LENGTH_MEASURE(0.18),#203);
#179=DRAUGHTING_PRE_DEFINED_COLOUR('blue');
#180=DRAUGHTING_PRE_DEFINED_CURVE_FONT('continuous');
#181=DRAUGHTING_PRE_DEFINED_CURVE_FONT('continuous');
#182=DRAUGHTING_PRE_DEFINED_CURVE_FONT('continuous');
#183=DRAUGHTING_PRE_DEFINED_CURVE_FONT('continuous');
#184=B_SPLINE_CURVE_WITH_KNOTS('CUTTING PART LINE',3,(#292,#293,#294,#295,
#296,#297,#298,#299,#300,#301,#302,#303,#304,#305,#306,#307,#308,#309,#310,
#311,#312,#313,#314,#315,#316,#317,#318,#319,#320,#321,#322,#323,#324),
 .UNSPECIFIED.,.T.,.F.,(4,3,1,1,1,1,1,1,1,1,1,1,1,1,1,1,1,1,1,1,1,1,1,1,
1,3,4),(0.,0.4489375811,0.472428501,0.495772602650625,0.4959194209,0.496175681321875,
0.49643194174375,0.4969444625875,0.49745698343125,0.497969504275,0.49848202511875,
0.4989945459625,0.49950706680625,0.50001958765,0.50053210849375,0.5010446293375,
0.50155715018125,0.502069671025,0.50258219186875,0.5030947127125,0.50360723355625,
0.503863493978125,0.5041197544,0.504258415938406,0.72597821585,0.9478366773,
1.),.UNSPECIFIED.);
#185=PRESENTATION_LAYER_ASSIGNMENT('1','Layer 1',(#291,#184,#207,#208,#209,
#46,#47));
#186=STYLED_ITEM('',(#193),#291);
#187=STYLED_ITEM('',(#194),#184);
#188=STYLED_ITEM('',(#195),#207);
#189=STYLED_ITEM('',(#196),#208);
#190=STYLED_ITEM('',(#197),#209);
#191=STYLED_ITEM('',(#198),#46);
#192=STYLED_ITEM('',(#199),#47);
#193=PRESENTATION_STYLE_ASSIGNMENT((#200));
#194=PRESENTATION_STYLE_ASSIGNMENT((#175));
#195=PRESENTATION_STYLE_ASSIGNMENT((#176));
#196=PRESENTATION_STYLE_ASSIGNMENT((#177));
#197=PRESENTATION_STYLE_ASSIGNMENT((#178));
#198=PRESENTATION_STYLE_ASSIGNMENT((#36));
#199=PRESENTATION_STYLE_ASSIGNMENT((#37));
#200=POINT_STYLE('',#201,POSITIVE_LENGTH_MEASURE(3.),#202);
#201=PRE_DEFINED_POINT_MARKER_SYMBOL('plus');
#202=COLOUR_RGB('Medium Royal',0.301960784313725,0.427450980392157,0.701960784313725);
#203=COLOUR_RGB('Pale Maroon',0.811764705882353,0.603921568627451,0.611764705882353);
#204=COLOUR_RGB('medium gray',0.490196078431373,0.490196078431373,0.490196078431373);
#205=COLOUR_RGB('light gray',0.8,0.8,0.8);
#206=AXIS2_PLACEMENT_3D('',#290,#234,#235);
#207=AXIS2_PLACEMENT_3D('MCS',#325,#236,#237);
#208=AXIS2_PLACEMENT_3D('CIP',#326,#238,#239);
#209=AXIS2_PLACEMENT_3D('PCS',#327,#240,#241);
#210=AXIS2_PLACEMENT_3D('',#328,#242,#243);
#211=AXIS2_PLACEMENT_3D('',#330,#244,#245);
#212=AXIS2_PLACEMENT_3D('',#332,#246,#247);
#213=AXIS2_PLACEMENT_3D('',#333,#248,#249);
#214=AXIS2_PLACEMENT_3D('',#334,#250,#251);
#215=AXIS2_PLACEMENT_3D('',#336,#252,#253);
#216=AXIS2_PLACEMENT_3D('',#338,#254,#255);
#217=AXIS2_PLACEMENT_3D('',#339,#256,#257);
#218=AXIS2_PLACEMENT_3D('',#341,#258,#259);
#219=AXIS2_PLACEMENT_3D('',#342,#260,#261);
#220=AXIS2_PLACEMENT_3D('',#344,#262,#263);
#221=AXIS2_PLACEMENT_3D('',#345,#264,#265);
#222=AXIS2_PLACEMENT_3D('',#346,#266,#267);
#223=AXIS2_PLACEMENT_3D('',#347,#268,#269);
#224=AXIS2_PLACEMENT_3D('',#349,#270,#271);
#225=AXIS2_PLACEMENT_3D('',#351,#272,#273);
#226=AXIS2_PLACEMENT_3D('',#352,#274,#275);
#227=AXIS2_PLACEMENT_3D('',#354,#276,#277);
#228=AXIS2_PLACEMENT_3D('',#355,#278,#279);
#229=AXIS2_PLACEMENT_3D('',#357,#280,#281);
#230=AXIS2_PLACEMENT_3D('',#358,#282,#283);
#231=AXIS2_PLACEMENT_3D('',#359,#284,#285);
#232=AXIS2_PLACEMENT_3D('',#361,#286,#287);
#233=AXIS2_PLACEMENT_3D('',#362,#288,#289);
#234=DIRECTION('',(0.,0.,1.));
#235=DIRECTION('',(1.,0.,0.));
#236=DIRECTION('',(0.,0.,1.));
#237=DIRECTION('',(1.,0.,0.));
#238=DIRECTION('',(0.,0.,1.));
#239=DIRECTION('',(1.,0.,0.));
#240=DIRECTION('',(0.,0.,1.));
#241=DIRECTION('',(1.,0.,0.));
#242=DIRECTION('',(0.,0.,-1.));
#243=DIRECTION('',(-1.,0.,0.));
#244=DIRECTION('',(0.,0.,-1.));
#245=DIRECTION('',(-1.,0.,0.));
#246=DIRECTION('',(0.,0.,-1.));
#247=DIRECTION('',(-1.,0.,8.28524645242657E-17));
#248=DIRECTION('',(0.,0.,1.));
#249=DIRECTION('',(1.,0.,0.));
#250=DIRECTION('',(0.,0.,-1.));
#251=DIRECTION('',(-1.,0.,0.));
#252=DIRECTION('',(0.,0.,-1.));
#253=DIRECTION('',(-1.,0.,0.));
#254=DIRECTION('',(0.,0.,-1.));
#255=DIRECTION('',(-1.,0.,0.));
#256=DIRECTION('',(0.,0.,-1.));
#257=DIRECTION('',(-1.,0.,0.));
#258=DIRECTION('',(0.,0.,-1.));
#259=DIRECTION('',(-1.,0.,0.));
#260=DIRECTION('',(0.,0.,-1.));
#261=DIRECTION('',(-1.,0.,0.));
#262=DIRECTION('',(0.,0.,-1.));
#263=DIRECTION('',(-1.,0.,0.));
#264=DIRECTION('',(0.,0.,-1.));
#265=DIRECTION('',(-1.,0.,0.));
#266=DIRECTION('',(0.,0.,-1.));
#267=DIRECTION('',(-1.,0.,0.));
#268=DIRECTION('',(0.,0.,-1.));
#269=DIRECTION('',(1.,1.22464679914735E-16,0.));
#270=DIRECTION('',(0.,0.,-1.));
#271=DIRECTION('',(-1.,0.,0.));
#272=DIRECTION('',(0.,0.,-1.));
#273=DIRECTION('',(-1.,0.,0.));
#274=DIRECTION('',(0.,0.,-1.));
#275=DIRECTION('',(-1.,0.,0.));
#276=DIRECTION('',(0.,0.,-1.));
#277=DIRECTION('',(-1.,0.,0.));
#278=DIRECTION('',(0.,0.,1.));
#279=DIRECTION('',(-1.,0.,0.));
#280=DIRECTION('',(0.,0.,-1.));
#281=DIRECTION('',(-1.,0.,-2.7279459242854E-15));
#282=DIRECTION('',(0.,0.,-1.));
#283=DIRECTION('',(-1.,0.,0.));
#284=DIRECTION('',(0.,0.,1.));
#285=DIRECTION('',(1.,1.22464679914735E-16,0.));
#286=DIRECTION('',(0.,0.,-1.));
#287=DIRECTION('',(-1.,0.,0.));
#288=DIRECTION('',(0.,0.,-1.));
#289=DIRECTION('',(-1.,0.,0.));
#290=CARTESIAN_POINT('',(0.,0.,0.));
#291=CARTESIAN_POINT('CRP',(-5.,0.,-95.));
#292=CARTESIAN_POINT('',(0.,0.,-52.));
#293=CARTESIAN_POINT('',(0.,0.,-66.3333333333333));
#294=CARTESIAN_POINT('',(0.,0.,-80.6666666666667));
#295=CARTESIAN_POINT('',(0.,0.,-95.));
#296=CARTESIAN_POINT('',(-0.75,0.,-95.));
#297=CARTESIAN_POINT('',(-2.2453125,0.,-95.));
#298=CARTESIAN_POINT('',(-3.7453125,0.,-95.));
#299=CARTESIAN_POINT('',(-4.50349418630835,0.,-95.0000575737302));
#300=CARTESIAN_POINT('',(-4.52454504978184,0.,-94.9995980372069));
#301=CARTESIAN_POINT('',(-4.55719296520794,0.,-94.9971901328216));
#302=CARTESIAN_POINT('',(-4.59770735705738,0.,-94.9911800527905));
#303=CARTESIAN_POINT('',(-4.64538354705734,0.,-94.9792370967314));
#304=CARTESIAN_POINT('',(-4.69165945928934,0.,-94.9626783154062));
#305=CARTESIAN_POINT('',(-4.7360893802863,0.,-94.9416631919853));
#306=CARTESIAN_POINT('',(-4.7782453802296,0.,-94.9163941405241));
#307=CARTESIAN_POINT('',(-4.8177214261567,0.,-94.8871145386059));
#308=CARTESIAN_POINT('',(-4.85413730294998,0.,-94.8541064000311));
#309=CARTESIAN_POINT('',(-4.88714226353424,0.,-94.8176876428593));
#310=CARTESIAN_POINT('',(-4.91641842041401,0.,-94.7782090419483));
#311=CARTESIAN_POINT('',(-4.94168379297781,0.,-94.7360508370244));
#312=CARTESIAN_POINT('',(-4.96269503908343,0.,-94.6916190822699));
#313=CARTESIAN_POINT('',(-4.97924978201625,0.,-94.6453417251764));
#314=CARTESIAN_POINT('',(-4.99118857750279,0.,-94.5976644931108));
#315=CARTESIAN_POINT('',(-4.99719512196163,0.,-94.5571495769095));
#316=CARTESIAN_POINT('',(-4.99960017726557,0.,-94.5245014515195));
#317=CARTESIAN_POINT('',(-5.00005470088122,0.,-94.5037109694514));
#318=CARTESIAN_POINT('',(-4.99938147495027,0.,-87.4122032268524));
#319=CARTESIAN_POINT('',(-4.99814520132954,0.,-73.2455511045962));
#320=CARTESIAN_POINT('',(-4.99690931404432,0.,-59.0833260611281));
#321=CARTESIAN_POINT('',(-4.99629117723396,0.,-52.));
#322=CARTESIAN_POINT('',(-3.33086078482264,0.,-52.));
#323=CARTESIAN_POINT('',(-1.66543039241132,0.,-52.));
#324=CARTESIAN_POINT('',(0.,0.,-52.));
#325=CARTESIAN_POINT('',(0.,0.,-40.));
#326=CARTESIAN_POINT('',(0.,0.,-95.));
#327=CARTESIAN_POINT('',(0.,0.,0.));
#328=CARTESIAN_POINT('',(0.,0.,0.));
#329=CARTESIAN_POINT('',(-4.29999999999999,0.,0.));
#330=CARTESIAN_POINT('',(0.,0.,-0.700000000000006));
#331=CARTESIAN_POINT('',(-5.,0.,-0.700000000000006));
#332=CARTESIAN_POINT('',(0.,0.,-0.700000000000006));
#333=CARTESIAN_POINT('',(4.29999999999999,0.,1.06319171702566E-16));
#334=CARTESIAN_POINT('',(0.,0.,-51.0386624988541));
#335=CARTESIAN_POINT('',(-4.75,0.,-51.0386624988541));
#336=CARTESIAN_POINT('',(0.,0.,-52.));
#337=CARTESIAN_POINT('',(-4.99629117723396,0.,-52.));
#338=CARTESIAN_POINT('',(0.,0.,-52.000174532925));
#339=CARTESIAN_POINT('',(0.,0.,-42.));
#340=CARTESIAN_POINT('',(-4.74999999999999,0.,-42.));
#341=CARTESIAN_POINT('',(0.,0.,-40.));
#342=CARTESIAN_POINT('',(0.,0.,-40.4387505004004));
#343=CARTESIAN_POINT('',(-5.,0.,-40.4387505004004));
#344=CARTESIAN_POINT('',(0.,0.,-42.));
#345=CARTESIAN_POINT('',(0.,0.,-40.));
#346=CARTESIAN_POINT('',(0.,0.,-52.));
#347=CARTESIAN_POINT('',(0.,0.,-95.));
#348=CARTESIAN_POINT('',(0.5,6.12323399573677E-17,-95.));
#349=CARTESIAN_POINT('',(0.,0.,-95.));
#350=CARTESIAN_POINT('',(-4.5,0.,-95.));
#351=CARTESIAN_POINT('',(-4.44089209850063E-16,0.,-95.));
#352=CARTESIAN_POINT('',(0.,0.,-94.4999563667688));
#353=CARTESIAN_POINT('',(-4.99999999809616,0.,-94.4999563667688));
#354=CARTESIAN_POINT('',(0.,0.,-94.5));
#355=CARTESIAN_POINT('',(0.,0.,-52.));
#356=CARTESIAN_POINT('',(-4.99629117723396,0.,-52.));
#357=CARTESIAN_POINT('',(0.,0.,-94.4999563667688));
#358=CARTESIAN_POINT('',(0.,0.,-52.));
#359=CARTESIAN_POINT('',(0.,0.,-94.9));
#360=CARTESIAN_POINT('',(0.5,6.12323399573677E-17,-94.9));
#361=CARTESIAN_POINT('',(0.,0.,-94.9));
#362=CARTESIAN_POINT('',(0.,0.,-94.9));
#363=MECHANICAL_DESIGN_GEOMETRIC_PRESENTATION_REPRESENTATION('',(#186,#187,
#188,#189,#190,#191,#192),#364);
#364=(
GEOMETRIC_REPRESENTATION_CONTEXT(3)
GLOBAL_UNCERTAINTY_ASSIGNED_CONTEXT((#365))
GLOBAL_UNIT_ASSIGNED_CONTEXT((#371,#367,#366))
REPRESENTATION_CONTEXT('S4651-100E4R050','TOP_LEVEL_ASSEMBLY_PART')
);
#365=UNCERTAINTY_MEASURE_WITH_UNIT(LENGTH_MEASURE(2.E-5),#371,
'DISTANCE_ACCURACY_VALUE','Maximum Tolerance applied to model');
#366=(
NAMED_UNIT(*)
SI_UNIT($,.STERADIAN.)
SOLID_ANGLE_UNIT()
);
#367=(
CONVERSION_BASED_UNIT('DEGREE',#369)
NAMED_UNIT(#368)
PLANE_ANGLE_UNIT()
);
#368=DIMENSIONAL_EXPONENTS(0.,0.,0.,0.,0.,0.,0.);
#369=PLANE_ANGLE_MEASURE_WITH_UNIT(PLANE_ANGLE_MEASURE(0.0174532925),#370);
#370=(
NAMED_UNIT(*)
PLANE_ANGLE_UNIT()
SI_UNIT($,.RADIAN.)
);
#371=(
LENGTH_UNIT()
NAMED_UNIT(*)
SI_UNIT(.MILLI.,.METRE.)
);
ENDSEC;
END-ISO-10303-21;
