ISO-10303-21;
HEADER;
/* Generated by software containing ST-Developer
 * from STEP Tools, Inc. (www.steptools.com) 
 */
/* OPTION: using custom schema-name function */

FILE_DESCRIPTION(
/* description */ (''),
/* implementation_level */ '2;1');

FILE_NAME(
/* name */ 'S4651-100E4R050.3Z5AC_Basic.stp',
/* time_stamp */ '2024-05-10T08:45:29+05:00',
/* author */ (''),
/* organization */ (''),
/* preprocessor_version */ 'ST-DEVELOPER v18.102',
/* originating_system */ 'SIEMENS PLM Software NX2206.8101',
/* authorisation */ '');

FILE_SCHEMA (('AUTOMOTIVE_DESIGN { 1 0 10303 214 3 1 1 1 }'));
ENDSEC;

DATA;
#10=CONSTRUCTIVE_GEOMETRY_REPRESENTATION_RELATIONSHIP(
'supplemental geometry','',#34,#11);
#11=CONSTRUCTIVE_GEOMETRY_REPRESENTATION('supplemental geometry',(#185,
#186,#187),#324);
#12=GEOMETRICALLY_BOUNDED_WIREFRAME_SHAPE_REPRESENTATION(
'inpu2ED4780794i1-None',(#35),#324);
#13=PROPERTY_DEFINITION_REPRESENTATION(#17,#15);
#14=PROPERTY_DEFINITION_REPRESENTATION(#18,#16);
#15=REPRESENTATION('',(#19),#324);
#16=REPRESENTATION('',(#20),#324);
#17=PROPERTY_DEFINITION('pmi validation property','',#25);
#18=PROPERTY_DEFINITION('pmi validation property','',#25);
#19=VALUE_REPRESENTATION_ITEM('number of annotations',COUNT_MEASURE(0.));
#20=VALUE_REPRESENTATION_ITEM('number of views',COUNT_MEASURE(0.));
#21=SHAPE_REPRESENTATION_RELATIONSHIP('None',
'relationship between inpu2ED4780794i1-None and inpu2ED4780794i1-None',
#34,#23);
#22=SHAPE_REPRESENTATION_RELATIONSHIP('None',
'relationship between inpu2ED4780794i1-None and inpu2ED4780794i1-None',
#34,#12);
#23=ADVANCED_BREP_SHAPE_REPRESENTATION('inpu2ED4780794i1-None',(#46,#47),
#324);
#24=SHAPE_DEFINITION_REPRESENTATION(#25,#34);
#25=PRODUCT_DEFINITION_SHAPE('','',#26);
#26=PRODUCT_DEFINITION(' ','',#28,#27);
#27=PRODUCT_DEFINITION_CONTEXT('part definition',#33,'design');
#28=PRODUCT_DEFINITION_FORMATION_WITH_SPECIFIED_SOURCE(' ',' ',#30,
 .NOT_KNOWN.);
#29=PRODUCT_RELATED_PRODUCT_CATEGORY('part','',(#30));
#30=PRODUCT('inpu2ED4780794i1','inpu2ED4780794i1',' ',(#31));
#31=PRODUCT_CONTEXT(' ',#33,'mechanical');
#32=APPLICATION_PROTOCOL_DEFINITION('international standard',
'automotive_design',2010,#33);
#33=APPLICATION_CONTEXT(
'core data for automotive mechanical design processes');
#34=SHAPE_REPRESENTATION('inpu2ED4780794i1-None',(#184),#324);
#35=GEOMETRIC_CURVE_SET('None',(#257,#162));
#36=SURFACE_STYLE_USAGE(.BOTH.,#38);
#37=SURFACE_STYLE_USAGE(.BOTH.,#39);
#38=SURFACE_SIDE_STYLE('',(#40));
#39=SURFACE_SIDE_STYLE('',(#41));
#40=SURFACE_STYLE_FILL_AREA(#42);
#41=SURFACE_STYLE_FILL_AREA(#43);
#42=FILL_AREA_STYLE('',(#44));
#43=FILL_AREA_STYLE('',(#45));
#44=FILL_AREA_STYLE_COLOUR('',#182);
#45=FILL_AREA_STYLE_COLOUR('',#183);
#46=MANIFOLD_SOLID_BREP('NOCUT',#48);
#47=MANIFOLD_SOLID_BREP('CUT',#49);
#48=CLOSED_SHELL('',(#63,#64,#65,#66,#67,#68,#69));
#49=CLOSED_SHELL('',(#70,#71,#72,#73));
#50=CYLINDRICAL_SURFACE('',#196,4.75);
#51=CYLINDRICAL_SURFACE('',#199,5.);
#52=TOROIDAL_SURFACE('',#194,2.99629118484939,2.);
#53=TOROIDAL_SURFACE('',#198,9.74999999999999,5.);
#54=TOROIDAL_SURFACE('',#204,4.5,0.500000000000014);
#55=PLANE('',#191);
#56=PLANE('',#200);
#57=PLANE('',#202);
#58=PLANE('',#207);
#59=FACE_OUTER_BOUND('',#92,.T.);
#60=FACE_OUTER_BOUND('',#101,.T.);
#61=FACE_OUTER_BOUND('',#102,.T.);
#62=FACE_OUTER_BOUND('',#107,.T.);
#63=ADVANCED_FACE('',(#76,#77),#74,.T.);
#64=ADVANCED_FACE('',(#59),#55,.T.);
#65=ADVANCED_FACE('',(#78,#79),#52,.T.);
#66=ADVANCED_FACE('',(#80,#81),#50,.T.);
#67=ADVANCED_FACE('',(#82,#83),#53,.F.);
#68=ADVANCED_FACE('',(#84,#85),#51,.T.);
#69=ADVANCED_FACE('',(#60),#56,.T.);
#70=ADVANCED_FACE('',(#61),#57,.T.);
#71=ADVANCED_FACE('',(#86,#87),#54,.T.);
#72=ADVANCED_FACE('',(#88,#89),#75,.T.);
#73=ADVANCED_FACE('',(#62),#58,.F.);
#74=CONICAL_SURFACE('',#190,5.,44.9999999999999);
#75=CONICAL_SURFACE('',#206,4.99999999809616,0.00500000000002156);
#76=FACE_BOUND('',#90,.T.);
#77=FACE_BOUND('',#91,.T.);
#78=FACE_BOUND('',#93,.T.);
#79=FACE_BOUND('',#94,.T.);
#80=FACE_BOUND('',#95,.T.);
#81=FACE_BOUND('',#96,.T.);
#82=FACE_BOUND('',#97,.T.);
#83=FACE_BOUND('',#98,.T.);
#84=FACE_BOUND('',#99,.T.);
#85=FACE_BOUND('',#100,.T.);
#86=FACE_BOUND('',#103,.T.);
#87=FACE_BOUND('',#104,.T.);
#88=FACE_BOUND('',#105,.T.);
#89=FACE_BOUND('',#106,.T.);
#90=EDGE_LOOP('',(#108));
#91=EDGE_LOOP('',(#109));
#92=EDGE_LOOP('',(#110));
#93=EDGE_LOOP('',(#111));
#94=EDGE_LOOP('',(#112));
#95=EDGE_LOOP('',(#113));
#96=EDGE_LOOP('',(#114));
#97=EDGE_LOOP('',(#115));
#98=EDGE_LOOP('',(#116));
#99=EDGE_LOOP('',(#117));
#100=EDGE_LOOP('',(#118));
#101=EDGE_LOOP('',(#119));
#102=EDGE_LOOP('',(#120));
#103=EDGE_LOOP('',(#121));
#104=EDGE_LOOP('',(#122));
#105=EDGE_LOOP('',(#123));
#106=EDGE_LOOP('',(#124));
#107=EDGE_LOOP('',(#125));
#108=ORIENTED_EDGE('',*,*,#135,.T.);
#109=ORIENTED_EDGE('',*,*,#136,.F.);
#110=ORIENTED_EDGE('',*,*,#135,.F.);
#111=ORIENTED_EDGE('',*,*,#137,.T.);
#112=ORIENTED_EDGE('',*,*,#138,.F.);
#113=ORIENTED_EDGE('',*,*,#139,.T.);
#114=ORIENTED_EDGE('',*,*,#137,.F.);
#115=ORIENTED_EDGE('',*,*,#140,.T.);
#116=ORIENTED_EDGE('',*,*,#139,.F.);
#117=ORIENTED_EDGE('',*,*,#136,.T.);
#118=ORIENTED_EDGE('',*,*,#140,.F.);
#119=ORIENTED_EDGE('',*,*,#138,.T.);
#120=ORIENTED_EDGE('',*,*,#141,.T.);
#121=ORIENTED_EDGE('',*,*,#142,.T.);
#122=ORIENTED_EDGE('',*,*,#141,.F.);
#123=ORIENTED_EDGE('',*,*,#143,.F.);
#124=ORIENTED_EDGE('',*,*,#142,.F.);
#125=ORIENTED_EDGE('',*,*,#143,.T.);
#126=VERTEX_POINT('',#295);
#127=VERTEX_POINT('',#297);
#128=VERTEX_POINT('',#301);
#129=VERTEX_POINT('',#303);
#130=VERTEX_POINT('',#306);
#131=VERTEX_POINT('',#309);
#132=VERTEX_POINT('',#314);
#133=VERTEX_POINT('',#317);
#134=VERTEX_POINT('',#320);
#135=EDGE_CURVE('',#126,#126,#144,.T.);
#136=EDGE_CURVE('',#127,#127,#145,.T.);
#137=EDGE_CURVE('',#128,#128,#146,.T.);
#138=EDGE_CURVE('',#129,#129,#147,.T.);
#139=EDGE_CURVE('',#130,#130,#148,.T.);
#140=EDGE_CURVE('',#131,#131,#149,.T.);
#141=EDGE_CURVE('',#132,#132,#150,.T.);
#142=EDGE_CURVE('',#133,#133,#151,.T.);
#143=EDGE_CURVE('',#134,#134,#152,.T.);
#144=CIRCLE('',#188,4.29999999999999);
#145=CIRCLE('',#189,5.);
#146=CIRCLE('',#192,4.75);
#147=CIRCLE('',#193,4.99629117723396);
#148=CIRCLE('',#195,4.74999999999999);
#149=CIRCLE('',#197,5.);
#150=CIRCLE('',#201,4.5);
#151=CIRCLE('',#203,4.99999999809616);
#152=CIRCLE('',#205,4.99629117723396);
#153=CURVE_STYLE('',#158,POSITIVE_LENGTH_MEASURE(0.18),#157);
#154=CURVE_STYLE('',#159,POSITIVE_LENGTH_MEASURE(0.18),#181);
#155=CURVE_STYLE('',#160,POSITIVE_LENGTH_MEASURE(0.18),#181);
#156=CURVE_STYLE('',#161,POSITIVE_LENGTH_MEASURE(0.18),#181);
#157=DRAUGHTING_PRE_DEFINED_COLOUR('blue');
#158=DRAUGHTING_PRE_DEFINED_CURVE_FONT('continuous');
#159=DRAUGHTING_PRE_DEFINED_CURVE_FONT('continuous');
#160=DRAUGHTING_PRE_DEFINED_CURVE_FONT('continuous');
#161=DRAUGHTING_PRE_DEFINED_CURVE_FONT('continuous');
#162=B_SPLINE_CURVE_WITH_KNOTS('CUTTING PART LINE',3,(#258,#259,#260,#261,
#262,#263,#264,#265,#266,#267,#268,#269,#270,#271,#272,#273,#274,#275,#276,
#277,#278,#279,#280,#281,#282,#283,#284,#285,#286,#287,#288,#289,#290),
 .UNSPECIFIED.,.T.,.F.,(4,3,1,1,1,1,1,1,1,1,1,1,1,1,1,1,1,1,1,1,1,1,1,1,
1,3,4),(0.,0.4489375811,0.472428501,0.495772602650625,0.4959194209,0.496175681321875,
0.49643194174375,0.4969444625875,0.49745698343125,0.497969504275,0.49848202511875,
0.4989945459625,0.49950706680625,0.50001958765,0.50053210849375,0.5010446293375,
0.50155715018125,0.502069671025,0.50258219186875,0.5030947127125,0.50360723355625,
0.503863493978125,0.5041197544,0.504258415938406,0.72597821585,0.9478366773,
1.),.UNSPECIFIED.);
#163=PRESENTATION_LAYER_ASSIGNMENT('1','Layer 1',(#257,#162,#185,#186,#187,
#46,#47));
#164=STYLED_ITEM('',(#171),#257);
#165=STYLED_ITEM('',(#172),#162);
#166=STYLED_ITEM('',(#173),#185);
#167=STYLED_ITEM('',(#174),#186);
#168=STYLED_ITEM('',(#175),#187);
#169=STYLED_ITEM('',(#176),#46);
#170=STYLED_ITEM('',(#177),#47);
#171=PRESENTATION_STYLE_ASSIGNMENT((#178));
#172=PRESENTATION_STYLE_ASSIGNMENT((#153));
#173=PRESENTATION_STYLE_ASSIGNMENT((#154));
#174=PRESENTATION_STYLE_ASSIGNMENT((#155));
#175=PRESENTATION_STYLE_ASSIGNMENT((#156));
#176=PRESENTATION_STYLE_ASSIGNMENT((#36));
#177=PRESENTATION_STYLE_ASSIGNMENT((#37));
#178=POINT_STYLE('',#179,POSITIVE_LENGTH_MEASURE(3.),#180);
#179=PRE_DEFINED_POINT_MARKER_SYMBOL('plus');
#180=COLOUR_RGB('Medium Royal',0.301960784313725,0.427450980392157,0.701960784313725);
#181=COLOUR_RGB('Pale Maroon',0.811764705882353,0.603921568627451,0.611764705882353);
#182=COLOUR_RGB('medium gray',0.490196078431373,0.490196078431373,0.490196078431373);
#183=COLOUR_RGB('light gray',0.8,0.8,0.8);
#184=AXIS2_PLACEMENT_3D('',#256,#208,#209);
#185=AXIS2_PLACEMENT_3D('MCS',#291,#210,#211);
#186=AXIS2_PLACEMENT_3D('CIP',#292,#212,#213);
#187=AXIS2_PLACEMENT_3D('PCS',#293,#214,#215);
#188=AXIS2_PLACEMENT_3D('',#294,#216,#217);
#189=AXIS2_PLACEMENT_3D('',#296,#218,#219);
#190=AXIS2_PLACEMENT_3D('',#298,#220,#221);
#191=AXIS2_PLACEMENT_3D('',#299,#222,#223);
#192=AXIS2_PLACEMENT_3D('',#300,#224,#225);
#193=AXIS2_PLACEMENT_3D('',#302,#226,#227);
#194=AXIS2_PLACEMENT_3D('',#304,#228,#229);
#195=AXIS2_PLACEMENT_3D('',#305,#230,#231);
#196=AXIS2_PLACEMENT_3D('',#307,#232,#233);
#197=AXIS2_PLACEMENT_3D('',#308,#234,#235);
#198=AXIS2_PLACEMENT_3D('',#310,#236,#237);
#199=AXIS2_PLACEMENT_3D('',#311,#238,#239);
#200=AXIS2_PLACEMENT_3D('',#312,#240,#241);
#201=AXIS2_PLACEMENT_3D('',#313,#242,#243);
#202=AXIS2_PLACEMENT_3D('',#315,#244,#245);
#203=AXIS2_PLACEMENT_3D('',#316,#246,#247);
#204=AXIS2_PLACEMENT_3D('',#318,#248,#249);
#205=AXIS2_PLACEMENT_3D('',#319,#250,#251);
#206=AXIS2_PLACEMENT_3D('',#321,#252,#253);
#207=AXIS2_PLACEMENT_3D('',#322,#254,#255);
#208=DIRECTION('',(0.,0.,1.));
#209=DIRECTION('',(1.,0.,0.));
#210=DIRECTION('',(0.,0.,1.));
#211=DIRECTION('',(1.,0.,0.));
#212=DIRECTION('',(0.,0.,1.));
#213=DIRECTION('',(1.,0.,0.));
#214=DIRECTION('',(0.,0.,1.));
#215=DIRECTION('',(1.,0.,0.));
#216=DIRECTION('',(0.,0.,-1.));
#217=DIRECTION('',(-1.,0.,0.));
#218=DIRECTION('',(0.,0.,-1.));
#219=DIRECTION('',(-1.,0.,0.));
#220=DIRECTION('',(0.,0.,-1.));
#221=DIRECTION('',(-1.,0.,8.28524645242657E-17));
#222=DIRECTION('',(0.,0.,1.));
#223=DIRECTION('',(1.,0.,0.));
#224=DIRECTION('',(0.,0.,-1.));
#225=DIRECTION('',(-1.,0.,0.));
#226=DIRECTION('',(0.,0.,-1.));
#227=DIRECTION('',(-1.,0.,0.));
#228=DIRECTION('',(0.,0.,-1.));
#229=DIRECTION('',(-1.,0.,0.));
#230=DIRECTION('',(0.,0.,-1.));
#231=DIRECTION('',(-1.,0.,0.));
#232=DIRECTION('',(0.,0.,-1.));
#233=DIRECTION('',(-1.,0.,0.));
#234=DIRECTION('',(0.,0.,-1.));
#235=DIRECTION('',(-1.,0.,0.));
#236=DIRECTION('',(0.,0.,-1.));
#237=DIRECTION('',(-1.,0.,0.));
#238=DIRECTION('',(0.,0.,-1.));
#239=DIRECTION('',(-1.,0.,0.));
#240=DIRECTION('',(0.,0.,-1.));
#241=DIRECTION('',(-1.,0.,0.));
#242=DIRECTION('',(0.,0.,-1.));
#243=DIRECTION('',(-1.,0.,0.));
#244=DIRECTION('',(0.,0.,-1.));
#245=DIRECTION('',(-1.,0.,0.));
#246=DIRECTION('',(0.,0.,-1.));
#247=DIRECTION('',(-1.,0.,0.));
#248=DIRECTION('',(0.,0.,-1.));
#249=DIRECTION('',(-1.,0.,0.));
#250=DIRECTION('',(0.,0.,1.));
#251=DIRECTION('',(-1.,0.,0.));
#252=DIRECTION('',(0.,0.,-1.));
#253=DIRECTION('',(-1.,0.,-2.7279459242854E-15));
#254=DIRECTION('',(0.,0.,-1.));
#255=DIRECTION('',(-1.,0.,0.));
#256=CARTESIAN_POINT('',(0.,0.,0.));
#257=CARTESIAN_POINT('CRP',(-5.,0.,-95.));
#258=CARTESIAN_POINT('',(0.,0.,-52.));
#259=CARTESIAN_POINT('',(0.,0.,-66.3333333333333));
#260=CARTESIAN_POINT('',(0.,0.,-80.6666666666667));
#261=CARTESIAN_POINT('',(0.,0.,-95.));
#262=CARTESIAN_POINT('',(-0.75,0.,-95.));
#263=CARTESIAN_POINT('',(-2.2453125,0.,-95.));
#264=CARTESIAN_POINT('',(-3.7453125,0.,-95.));
#265=CARTESIAN_POINT('',(-4.50349418630835,0.,-95.0000575737302));
#266=CARTESIAN_POINT('',(-4.52454504978184,0.,-94.9995980372069));
#267=CARTESIAN_POINT('',(-4.55719296520794,0.,-94.9971901328216));
#268=CARTESIAN_POINT('',(-4.59770735705738,0.,-94.9911800527905));
#269=CARTESIAN_POINT('',(-4.64538354705734,0.,-94.9792370967314));
#270=CARTESIAN_POINT('',(-4.69165945928934,0.,-94.9626783154062));
#271=CARTESIAN_POINT('',(-4.7360893802863,0.,-94.9416631919853));
#272=CARTESIAN_POINT('',(-4.7782453802296,0.,-94.9163941405241));
#273=CARTESIAN_POINT('',(-4.8177214261567,0.,-94.8871145386059));
#274=CARTESIAN_POINT('',(-4.85413730294998,0.,-94.8541064000311));
#275=CARTESIAN_POINT('',(-4.88714226353424,0.,-94.8176876428593));
#276=CARTESIAN_POINT('',(-4.91641842041401,0.,-94.7782090419483));
#277=CARTESIAN_POINT('',(-4.94168379297781,0.,-94.7360508370244));
#278=CARTESIAN_POINT('',(-4.96269503908343,0.,-94.6916190822699));
#279=CARTESIAN_POINT('',(-4.97924978201625,0.,-94.6453417251764));
#280=CARTESIAN_POINT('',(-4.99118857750279,0.,-94.5976644931108));
#281=CARTESIAN_POINT('',(-4.99719512196163,0.,-94.5571495769095));
#282=CARTESIAN_POINT('',(-4.99960017726557,0.,-94.5245014515195));
#283=CARTESIAN_POINT('',(-5.00005470088122,0.,-94.5037109694514));
#284=CARTESIAN_POINT('',(-4.99938147495027,0.,-87.4122032268524));
#285=CARTESIAN_POINT('',(-4.99814520132954,0.,-73.2455511045962));
#286=CARTESIAN_POINT('',(-4.99690931404432,0.,-59.0833260611281));
#287=CARTESIAN_POINT('',(-4.99629117723396,0.,-52.));
#288=CARTESIAN_POINT('',(-3.33086078482264,0.,-52.));
#289=CARTESIAN_POINT('',(-1.66543039241132,0.,-52.));
#290=CARTESIAN_POINT('',(0.,0.,-52.));
#291=CARTESIAN_POINT('',(0.,0.,-40.));
#292=CARTESIAN_POINT('',(0.,0.,-95.));
#293=CARTESIAN_POINT('',(0.,0.,0.));
#294=CARTESIAN_POINT('',(0.,0.,0.));
#295=CARTESIAN_POINT('',(-4.29999999999999,0.,0.));
#296=CARTESIAN_POINT('',(0.,0.,-0.700000000000006));
#297=CARTESIAN_POINT('',(-5.,0.,-0.700000000000006));
#298=CARTESIAN_POINT('',(0.,0.,-0.700000000000006));
#299=CARTESIAN_POINT('',(4.29999999999999,0.,1.06319171702566E-16));
#300=CARTESIAN_POINT('',(0.,0.,-51.0386624988541));
#301=CARTESIAN_POINT('',(-4.75,0.,-51.0386624988541));
#302=CARTESIAN_POINT('',(0.,0.,-52.));
#303=CARTESIAN_POINT('',(-4.99629117723396,0.,-52.));
#304=CARTESIAN_POINT('',(0.,0.,-52.000174532925));
#305=CARTESIAN_POINT('',(0.,0.,-42.));
#306=CARTESIAN_POINT('',(-4.74999999999999,0.,-42.));
#307=CARTESIAN_POINT('',(0.,0.,-40.));
#308=CARTESIAN_POINT('',(0.,0.,-40.4387505004004));
#309=CARTESIAN_POINT('',(-5.,0.,-40.4387505004004));
#310=CARTESIAN_POINT('',(0.,0.,-42.));
#311=CARTESIAN_POINT('',(0.,0.,-40.));
#312=CARTESIAN_POINT('',(0.,0.,-52.));
#313=CARTESIAN_POINT('',(0.,0.,-95.));
#314=CARTESIAN_POINT('',(-4.5,0.,-95.));
#315=CARTESIAN_POINT('',(-4.44089209850063E-16,0.,-95.));
#316=CARTESIAN_POINT('',(0.,0.,-94.4999563667688));
#317=CARTESIAN_POINT('',(-4.99999999809616,0.,-94.4999563667688));
#318=CARTESIAN_POINT('',(0.,0.,-94.5));
#319=CARTESIAN_POINT('',(0.,0.,-52.));
#320=CARTESIAN_POINT('',(-4.99629117723396,0.,-52.));
#321=CARTESIAN_POINT('',(0.,0.,-94.4999563667688));
#322=CARTESIAN_POINT('',(0.,0.,-52.));
#323=MECHANICAL_DESIGN_GEOMETRIC_PRESENTATION_REPRESENTATION('',(#164,#165,
#166,#167,#168,#169,#170),#324);
#324=(
GEOMETRIC_REPRESENTATION_CONTEXT(3)
GLOBAL_UNCERTAINTY_ASSIGNED_CONTEXT((#325))
GLOBAL_UNIT_ASSIGNED_CONTEXT((#331,#327,#326))
REPRESENTATION_CONTEXT('S4651-100E4R050','TOP_LEVEL_ASSEMBLY_PART')
);
#325=UNCERTAINTY_MEASURE_WITH_UNIT(LENGTH_MEASURE(2.E-5),#331,
'DISTANCE_ACCURACY_VALUE','Maximum Tolerance applied to model');
#326=(
NAMED_UNIT(*)
SI_UNIT($,.STERADIAN.)
SOLID_ANGLE_UNIT()
);
#327=(
CONVERSION_BASED_UNIT('DEGREE',#329)
NAMED_UNIT(#328)
PLANE_ANGLE_UNIT()
);
#328=DIMENSIONAL_EXPONENTS(0.,0.,0.,0.,0.,0.,0.);
#329=PLANE_ANGLE_MEASURE_WITH_UNIT(PLANE_ANGLE_MEASURE(0.0174532925),#330);
#330=(
NAMED_UNIT(*)
PLANE_ANGLE_UNIT()
SI_UNIT($,.RADIAN.)
);
#331=(
LENGTH_UNIT()
NAMED_UNIT(*)
SI_UNIT(.MILLI.,.METRE.)
);
ENDSEC;
END-ISO-10303-21;
