ISO-10303-21;
HEADER;
/* Generated by software containing ST-Developer
 * from STEP Tools, Inc. (www.steptools.com) 
 */
/* OPTION: using custom schema-name function */

FILE_DESCRIPTION(
/* description */ (''),
/* implementation_level */ '2;1');

FILE_NAME(
/* name */ 'S4651-120E2R050.0Z5AC_Basic.stp',
/* time_stamp */ '2024-05-10T08:43:43+05:00',
/* author */ (''),
/* organization */ (''),
/* preprocessor_version */ 'ST-DEVELOPER v18.102',
/* originating_system */ 'SIEMENS PLM Software NX2206.8101',
/* authorisation */ '');

FILE_SCHEMA (('AUTOMOTIVE_DESIGN { 1 0 10303 214 3 1 1 1 }'));
ENDSEC;

DATA;
#10=CONSTRUCTIVE_GEOMETRY_REPRESENTATION_RELATIONSHIP(
'supplemental geometry','',#34,#11);
#11=CONSTRUCTIVE_GEOMETRY_REPRESENTATION('supplemental geometry',(#207,
#208,#209),#388);
#12=GEOMETRICALLY_BOUNDED_WIREFRAME_SHAPE_REPRESENTATION(
'inpu2ED47807945o-None',(#35),#388);
#13=PROPERTY_DEFINITION_REPRESENTATION(#17,#15);
#14=PROPERTY_DEFINITION_REPRESENTATION(#18,#16);
#15=REPRESENTATION('',(#19),#388);
#16=REPRESENTATION('',(#20),#388);
#17=PROPERTY_DEFINITION('pmi validation property','',#25);
#18=PROPERTY_DEFINITION('pmi validation property','',#25);
#19=VALUE_REPRESENTATION_ITEM('number of annotations',COUNT_MEASURE(0.));
#20=VALUE_REPRESENTATION_ITEM('number of views',COUNT_MEASURE(0.));
#21=SHAPE_REPRESENTATION_RELATIONSHIP('None',
'relationship between inpu2ED47807945o-None and inpu2ED47807945o-None',
#34,#23);
#22=SHAPE_REPRESENTATION_RELATIONSHIP('None',
'relationship between inpu2ED47807945o-None and inpu2ED47807945o-None',
#34,#12);
#23=ADVANCED_BREP_SHAPE_REPRESENTATION('inpu2ED47807945o-None',(#46,#47),
#388);
#24=SHAPE_DEFINITION_REPRESENTATION(#25,#34);
#25=PRODUCT_DEFINITION_SHAPE('','',#26);
#26=PRODUCT_DEFINITION(' ','',#28,#27);
#27=PRODUCT_DEFINITION_CONTEXT('part definition',#33,'design');
#28=PRODUCT_DEFINITION_FORMATION_WITH_SPECIFIED_SOURCE(' ',' ',#30,
 .NOT_KNOWN.);
#29=PRODUCT_RELATED_PRODUCT_CATEGORY('part','',(#30));
#30=PRODUCT('inpu2ED47807945o','inpu2ED47807945o',' ',(#31));
#31=PRODUCT_CONTEXT(' ',#33,'mechanical');
#32=APPLICATION_PROTOCOL_DEFINITION('international standard',
'automotive_design',2010,#33);
#33=APPLICATION_CONTEXT(
'core data for automotive mechanical design processes');
#34=SHAPE_REPRESENTATION('inpu2ED47807945o-None',(#206),#388);
#35=GEOMETRIC_CURVE_SET('None',(#288,#184));
#36=SURFACE_STYLE_USAGE(.BOTH.,#38);
#37=SURFACE_STYLE_USAGE(.BOTH.,#39);
#38=SURFACE_SIDE_STYLE('',(#40));
#39=SURFACE_SIDE_STYLE('',(#41));
#40=SURFACE_STYLE_FILL_AREA(#42);
#41=SURFACE_STYLE_FILL_AREA(#43);
#42=FILL_AREA_STYLE('',(#44));
#43=FILL_AREA_STYLE('',(#45));
#44=FILL_AREA_STYLE_COLOUR('',#204);
#45=FILL_AREA_STYLE_COLOUR('',#205);
#46=MANIFOLD_SOLID_BREP('NOCUT',#48);
#47=MANIFOLD_SOLID_BREP('CUT',#49);
#48=CLOSED_SHELL('',(#65,#66,#67,#68,#69,#70,#71));
#49=CLOSED_SHELL('',(#72,#73,#74,#75,#76,#77));
#50=TOROIDAL_SURFACE('',#219,10.7,5.);
#51=TOROIDAL_SURFACE('',#226,5.50000000000001,0.500000000000014);
#52=CYLINDRICAL_SURFACE('',#217,5.7);
#53=CYLINDRICAL_SURFACE('',#220,6.);
#54=CYLINDRICAL_SURFACE('',#231,0.600000000000008);
#55=(
BOUNDED_SURFACE()
B_SPLINE_SURFACE(3,3,((#335,#336,#337,#338,#339,#340,#341),(#342,#343,#344,
#345,#346,#347,#348),(#349,#350,#351,#352,#353,#354,#355),(#356,#357,#358,
#359,#360,#361,#362)),.UNSPECIFIED.,.F.,.T.,.F.)
B_SPLINE_SURFACE_WITH_KNOTS((4,4),(1,3,3,3,1),(0.,1.),(-0.5,0.,0.5,1.,1.5),
 .UNSPECIFIED.)
GEOMETRIC_REPRESENTATION_ITEM()
RATIONAL_B_SPLINE_SURFACE(((1.,0.333333333333333,0.333333333333333,1.,0.333333333333333,
0.333333333333333,1.),(0.983257900792922,0.327752633597641,0.327752633597641,
0.983257900792922,0.327752633597641,0.327752633597641,0.983257900792922),
(0.983257900792922,0.327752633597641,0.327752633597641,0.983257900792922,
0.327752633597641,0.327752633597641,0.983257900792922),(1.,0.333333333333333,
0.333333333333333,1.,0.333333333333333,0.333333333333333,1.)))
REPRESENTATION_ITEM('')
SURFACE()
);
#56=PLANE('',#213);
#57=PLANE('',#221);
#58=PLANE('',#224);
#59=PLANE('',#229);
#60=PLANE('',#232);
#61=FACE_OUTER_BOUND('',#100,.T.);
#62=FACE_OUTER_BOUND('',#109,.T.);
#63=FACE_OUTER_BOUND('',#116,.T.);
#64=FACE_OUTER_BOUND('',#119,.T.);
#65=ADVANCED_FACE('',(#80,#81),#78,.T.);
#66=ADVANCED_FACE('',(#61),#56,.T.);
#67=ADVANCED_FACE('',(#82,#83),#55,.T.);
#68=ADVANCED_FACE('',(#84,#85),#52,.T.);
#69=ADVANCED_FACE('',(#86,#87),#50,.F.);
#70=ADVANCED_FACE('',(#88,#89),#53,.T.);
#71=ADVANCED_FACE('',(#62),#57,.T.);
#72=ADVANCED_FACE('',(#90,#91),#58,.T.);
#73=ADVANCED_FACE('',(#92,#93),#51,.T.);
#74=ADVANCED_FACE('',(#94,#95),#79,.T.);
#75=ADVANCED_FACE('',(#63),#59,.F.);
#76=ADVANCED_FACE('',(#96,#97),#54,.F.);
#77=ADVANCED_FACE('',(#64),#60,.T.);
#78=CONICAL_SURFACE('',#212,6.,45.);
#79=CONICAL_SURFACE('',#228,5.99999999809616,0.00500000000003329);
#80=FACE_BOUND('',#98,.T.);
#81=FACE_BOUND('',#99,.T.);
#82=FACE_BOUND('',#101,.T.);
#83=FACE_BOUND('',#102,.T.);
#84=FACE_BOUND('',#103,.T.);
#85=FACE_BOUND('',#104,.T.);
#86=FACE_BOUND('',#105,.T.);
#87=FACE_BOUND('',#106,.T.);
#88=FACE_BOUND('',#107,.T.);
#89=FACE_BOUND('',#108,.T.);
#90=FACE_BOUND('',#110,.T.);
#91=FACE_BOUND('',#111,.T.);
#92=FACE_BOUND('',#112,.T.);
#93=FACE_BOUND('',#113,.T.);
#94=FACE_BOUND('',#114,.T.);
#95=FACE_BOUND('',#115,.T.);
#96=FACE_BOUND('',#117,.T.);
#97=FACE_BOUND('',#118,.T.);
#98=EDGE_LOOP('',(#120));
#99=EDGE_LOOP('',(#121));
#100=EDGE_LOOP('',(#122));
#101=EDGE_LOOP('',(#123));
#102=EDGE_LOOP('',(#124));
#103=EDGE_LOOP('',(#125));
#104=EDGE_LOOP('',(#126));
#105=EDGE_LOOP('',(#127));
#106=EDGE_LOOP('',(#128));
#107=EDGE_LOOP('',(#129));
#108=EDGE_LOOP('',(#130));
#109=EDGE_LOOP('',(#131));
#110=EDGE_LOOP('',(#132));
#111=EDGE_LOOP('',(#133));
#112=EDGE_LOOP('',(#134));
#113=EDGE_LOOP('',(#135));
#114=EDGE_LOOP('',(#136));
#115=EDGE_LOOP('',(#137));
#116=EDGE_LOOP('',(#138));
#117=EDGE_LOOP('',(#139));
#118=EDGE_LOOP('',(#140));
#119=EDGE_LOOP('',(#141));
#120=ORIENTED_EDGE('',*,*,#153,.T.);
#121=ORIENTED_EDGE('',*,*,#154,.F.);
#122=ORIENTED_EDGE('',*,*,#153,.F.);
#123=ORIENTED_EDGE('',*,*,#155,.T.);
#124=ORIENTED_EDGE('',*,*,#156,.F.);
#125=ORIENTED_EDGE('',*,*,#157,.T.);
#126=ORIENTED_EDGE('',*,*,#155,.F.);
#127=ORIENTED_EDGE('',*,*,#158,.T.);
#128=ORIENTED_EDGE('',*,*,#157,.F.);
#129=ORIENTED_EDGE('',*,*,#154,.T.);
#130=ORIENTED_EDGE('',*,*,#158,.F.);
#131=ORIENTED_EDGE('',*,*,#156,.T.);
#132=ORIENTED_EDGE('',*,*,#159,.F.);
#133=ORIENTED_EDGE('',*,*,#160,.T.);
#134=ORIENTED_EDGE('',*,*,#161,.T.);
#135=ORIENTED_EDGE('',*,*,#160,.F.);
#136=ORIENTED_EDGE('',*,*,#162,.F.);
#137=ORIENTED_EDGE('',*,*,#161,.F.);
#138=ORIENTED_EDGE('',*,*,#162,.T.);
#139=ORIENTED_EDGE('',*,*,#163,.T.);
#140=ORIENTED_EDGE('',*,*,#159,.T.);
#141=ORIENTED_EDGE('',*,*,#163,.F.);
#142=VERTEX_POINT('',#326);
#143=VERTEX_POINT('',#328);
#144=VERTEX_POINT('',#332);
#145=VERTEX_POINT('',#334);
#146=VERTEX_POINT('',#364);
#147=VERTEX_POINT('',#367);
#148=VERTEX_POINT('',#372);
#149=VERTEX_POINT('',#374);
#150=VERTEX_POINT('',#377);
#151=VERTEX_POINT('',#380);
#152=VERTEX_POINT('',#384);
#153=EDGE_CURVE('',#142,#142,#164,.T.);
#154=EDGE_CURVE('',#143,#143,#165,.T.);
#155=EDGE_CURVE('',#144,#144,#166,.T.);
#156=EDGE_CURVE('',#145,#145,#167,.T.);
#157=EDGE_CURVE('',#146,#146,#168,.T.);
#158=EDGE_CURVE('',#147,#147,#169,.T.);
#159=EDGE_CURVE('',#148,#148,#170,.T.);
#160=EDGE_CURVE('',#149,#149,#171,.T.);
#161=EDGE_CURVE('',#150,#150,#172,.T.);
#162=EDGE_CURVE('',#151,#151,#173,.T.);
#163=EDGE_CURVE('',#152,#152,#174,.T.);
#164=CIRCLE('',#210,5.);
#165=CIRCLE('',#211,6.);
#166=CIRCLE('',#214,5.7);
#167=CIRCLE('',#215,5.9976874406391);
#168=CIRCLE('',#216,5.7);
#169=CIRCLE('',#218,6.);
#170=CIRCLE('',#222,0.600000000000008);
#171=CIRCLE('',#223,5.5);
#172=CIRCLE('',#225,5.99999999809616);
#173=CIRCLE('',#227,5.99768744063909);
#174=CIRCLE('',#230,0.600000000000008);
#175=CURVE_STYLE('',#180,POSITIVE_LENGTH_MEASURE(0.18),#179);
#176=CURVE_STYLE('',#181,POSITIVE_LENGTH_MEASURE(0.18),#203);
#177=CURVE_STYLE('',#182,POSITIVE_LENGTH_MEASURE(0.18),#203);
#178=CURVE_STYLE('',#183,POSITIVE_LENGTH_MEASURE(0.18),#203);
#179=DRAUGHTING_PRE_DEFINED_COLOUR('blue');
#180=DRAUGHTING_PRE_DEFINED_CURVE_FONT('continuous');
#181=DRAUGHTING_PRE_DEFINED_CURVE_FONT('continuous');
#182=DRAUGHTING_PRE_DEFINED_CURVE_FONT('continuous');
#183=DRAUGHTING_PRE_DEFINED_CURVE_FONT('continuous');
#184=B_SPLINE_CURVE_WITH_KNOTS('CUTTING PART LINE',3,(#289,#290,#291,#292,
#293,#294,#295,#296,#297,#298,#299,#300,#301,#302,#303,#304,#305,#306,#307,
#308,#309,#310,#311,#312,#313,#314,#315,#316,#317,#318,#319,#320,#321),
 .UNSPECIFIED.,.T.,.F.,(4,3,1,1,1,1,1,1,1,1,1,1,1,1,1,1,1,1,1,1,1,1,1,1,
1,3,4),(0.,0.4104398525,0.4522439116,0.493865077941437,0.4940479707,0.49442109178125,
0.4947942128625,0.495540455025,0.4962866971875,0.49703293935,0.4977791815125,
0.498525423675,0.4992716658375,0.500017908,0.5007641501625,0.501510392325,
0.5022566344875,0.50300287665,0.5037491188125,0.504495360975,0.5052416031375,
0.50561472421875,0.5059878453,0.5061137323165,0.7074070717,0.9088262981,
1.),.UNSPECIFIED.);
#185=PRESENTATION_LAYER_ASSIGNMENT('1','Layer 1',(#288,#184,#207,#208,#209,
#46,#47));
#186=STYLED_ITEM('',(#193),#288);
#187=STYLED_ITEM('',(#194),#184);
#188=STYLED_ITEM('',(#195),#207);
#189=STYLED_ITEM('',(#196),#208);
#190=STYLED_ITEM('',(#197),#209);
#191=STYLED_ITEM('',(#198),#46);
#192=STYLED_ITEM('',(#199),#47);
#193=PRESENTATION_STYLE_ASSIGNMENT((#200));
#194=PRESENTATION_STYLE_ASSIGNMENT((#175));
#195=PRESENTATION_STYLE_ASSIGNMENT((#176));
#196=PRESENTATION_STYLE_ASSIGNMENT((#177));
#197=PRESENTATION_STYLE_ASSIGNMENT((#178));
#198=PRESENTATION_STYLE_ASSIGNMENT((#36));
#199=PRESENTATION_STYLE_ASSIGNMENT((#37));
#200=POINT_STYLE('',#201,POSITIVE_LENGTH_MEASURE(3.),#202);
#201=PRE_DEFINED_POINT_MARKER_SYMBOL('plus');
#202=COLOUR_RGB('Medium Royal',0.301960784313725,0.427450980392157,0.701960784313725);
#203=COLOUR_RGB('Pale Maroon',0.811764705882353,0.603921568627451,0.611764705882353);
#204=COLOUR_RGB('medium gray',0.490196078431373,0.490196078431373,0.490196078431373);
#205=COLOUR_RGB('light gray',0.8,0.8,0.8);
#206=AXIS2_PLACEMENT_3D('',#287,#233,#234);
#207=AXIS2_PLACEMENT_3D('MCS',#322,#235,#236);
#208=AXIS2_PLACEMENT_3D('CIP',#323,#237,#238);
#209=AXIS2_PLACEMENT_3D('PCS',#324,#239,#240);
#210=AXIS2_PLACEMENT_3D('',#325,#241,#242);
#211=AXIS2_PLACEMENT_3D('',#327,#243,#244);
#212=AXIS2_PLACEMENT_3D('',#329,#245,#246);
#213=AXIS2_PLACEMENT_3D('',#330,#247,#248);
#214=AXIS2_PLACEMENT_3D('',#331,#249,#250);
#215=AXIS2_PLACEMENT_3D('',#333,#251,#252);
#216=AXIS2_PLACEMENT_3D('',#363,#253,#254);
#217=AXIS2_PLACEMENT_3D('',#365,#255,#256);
#218=AXIS2_PLACEMENT_3D('',#366,#257,#258);
#219=AXIS2_PLACEMENT_3D('',#368,#259,#260);
#220=AXIS2_PLACEMENT_3D('',#369,#261,#262);
#221=AXIS2_PLACEMENT_3D('',#370,#263,#264);
#222=AXIS2_PLACEMENT_3D('',#371,#265,#266);
#223=AXIS2_PLACEMENT_3D('',#373,#267,#268);
#224=AXIS2_PLACEMENT_3D('',#375,#269,#270);
#225=AXIS2_PLACEMENT_3D('',#376,#271,#272);
#226=AXIS2_PLACEMENT_3D('',#378,#273,#274);
#227=AXIS2_PLACEMENT_3D('',#379,#275,#276);
#228=AXIS2_PLACEMENT_3D('',#381,#277,#278);
#229=AXIS2_PLACEMENT_3D('',#382,#279,#280);
#230=AXIS2_PLACEMENT_3D('',#383,#281,#282);
#231=AXIS2_PLACEMENT_3D('',#385,#283,#284);
#232=AXIS2_PLACEMENT_3D('',#386,#285,#286);
#233=DIRECTION('',(0.,0.,1.));
#234=DIRECTION('',(1.,0.,0.));
#235=DIRECTION('',(0.,0.,1.));
#236=DIRECTION('',(1.,0.,0.));
#237=DIRECTION('',(0.,0.,1.));
#238=DIRECTION('',(1.,0.,0.));
#239=DIRECTION('',(0.,0.,1.));
#240=DIRECTION('',(1.,0.,0.));
#241=DIRECTION('',(0.,0.,-1.));
#242=DIRECTION('',(-1.,0.,0.));
#243=DIRECTION('',(0.,0.,-1.));
#244=DIRECTION('',(-1.,0.,0.));
#245=DIRECTION('',(0.,0.,-1.));
#246=DIRECTION('',(-1.,0.,1.10360141612839E-16));
#247=DIRECTION('',(0.,0.,1.));
#248=DIRECTION('',(1.,0.,0.));
#249=DIRECTION('',(0.,0.,-1.));
#250=DIRECTION('',(-1.,0.,0.));
#251=DIRECTION('',(0.,0.,-1.));
#252=DIRECTION('',(-1.,0.,0.));
#253=DIRECTION('',(0.,0.,-1.));
#254=DIRECTION('',(-1.,0.,0.));
#255=DIRECTION('',(0.,0.,-1.));
#256=DIRECTION('',(-1.,0.,0.));
#257=DIRECTION('',(0.,0.,-1.));
#258=DIRECTION('',(-1.,0.,0.));
#259=DIRECTION('',(0.,0.,-1.));
#260=DIRECTION('',(-1.,0.,0.));
#261=DIRECTION('',(0.,0.,-1.));
#262=DIRECTION('',(-1.,0.,0.));
#263=DIRECTION('',(0.,0.,-1.));
#264=DIRECTION('',(-1.,0.,0.));
#265=DIRECTION('',(0.,0.,-1.));
#266=DIRECTION('',(1.,1.22464679914735E-16,0.));
#267=DIRECTION('',(0.,0.,-1.));
#268=DIRECTION('',(-1.,0.,0.));
#269=DIRECTION('',(0.,0.,-1.));
#270=DIRECTION('',(-1.,0.,0.));
#271=DIRECTION('',(0.,0.,-1.));
#272=DIRECTION('',(-1.,0.,0.));
#273=DIRECTION('',(0.,0.,-1.));
#274=DIRECTION('',(-1.,0.,0.));
#275=DIRECTION('',(0.,0.,1.));
#276=DIRECTION('',(-1.,0.,0.));
#277=DIRECTION('',(0.,0.,-1.));
#278=DIRECTION('',(-1.,0.,1.59586433875365E-14));
#279=DIRECTION('',(0.,0.,-1.));
#280=DIRECTION('',(-1.,0.,0.));
#281=DIRECTION('',(0.,0.,1.));
#282=DIRECTION('',(1.,1.22464679914735E-16,0.));
#283=DIRECTION('',(0.,0.,-1.));
#284=DIRECTION('',(-1.,0.,0.));
#285=DIRECTION('',(0.,0.,-1.));
#286=DIRECTION('',(-1.,0.,0.));
#287=CARTESIAN_POINT('',(0.,0.,0.));
#288=CARTESIAN_POINT('CRP',(-6.,0.,-88.));
#289=CARTESIAN_POINT('',(0.,0.,-61.));
#290=CARTESIAN_POINT('',(0.,0.,-70.));
#291=CARTESIAN_POINT('',(0.,0.,-79.));
#292=CARTESIAN_POINT('',(0.,0.,-88.));
#293=CARTESIAN_POINT('',(-0.916666666666666,0.,-88.));
#294=CARTESIAN_POINT('',(-2.74598958333333,0.,-88.));
#295=CARTESIAN_POINT('',(-4.57932291666667,0.,-88.));
#296=CARTESIAN_POINT('',(-5.50417126946937,0.,-88.0000492575251));
#297=CARTESIAN_POINT('',(-5.52454504978184,0.,-87.999598037207));
#298=CARTESIAN_POINT('',(-5.55719296520794,0.,-87.9971901328216));
#299=CARTESIAN_POINT('',(-5.59770735705738,0.,-87.9911800527905));
#300=CARTESIAN_POINT('',(-5.64538354705734,0.,-87.9792370967314));
#301=CARTESIAN_POINT('',(-5.69165945928934,0.,-87.9626783154062));
#302=CARTESIAN_POINT('',(-5.7360893802863,0.,-87.9416631919854));
#303=CARTESIAN_POINT('',(-5.77824538023198,0.,-87.9163941405219));
#304=CARTESIAN_POINT('',(-5.81772142614718,0.,-87.8871145386148));
#305=CARTESIAN_POINT('',(-5.85413730298224,0.,-87.8541063999989));
#306=CARTESIAN_POINT('',(-5.88714226352534,0.,-87.8176876428688));
#307=CARTESIAN_POINT('',(-5.91641842041624,0.,-87.7782090419459));
#308=CARTESIAN_POINT('',(-5.94168379297781,0.,-87.7360508370244));
#309=CARTESIAN_POINT('',(-5.96269503908343,0.,-87.6916190822699));
#310=CARTESIAN_POINT('',(-5.97924978201625,0.,-87.6453417251764));
#311=CARTESIAN_POINT('',(-5.99118857750279,0.,-87.5976644931108));
#312=CARTESIAN_POINT('',(-5.99719512196163,0.,-87.5571495769095));
#313=CARTESIAN_POINT('',(-5.99960017726557,0.,-87.5245014515195));
#314=CARTESIAN_POINT('',(-6.0000343756658,0.,-87.5053776375598));
#315=CARTESIAN_POINT('',(-5.9996143309619,0.,-83.0805365601858));
#316=CARTESIAN_POINT('',(-5.99884347847622,0.,-74.2472177712628));
#317=CARTESIAN_POINT('',(-5.99807286688194,0.,-65.4166593944615));
#318=CARTESIAN_POINT('',(-5.9976874406391,0.,-61.));
#319=CARTESIAN_POINT('',(-3.9984582937594,0.,-61.));
#320=CARTESIAN_POINT('',(-1.9992291468797,0.,-61.));
#321=CARTESIAN_POINT('',(0.,0.,-61.));
#322=CARTESIAN_POINT('',(0.,0.,-45.));
#323=CARTESIAN_POINT('',(0.,0.,-88.));
#324=CARTESIAN_POINT('',(0.,0.,0.));
#325=CARTESIAN_POINT('',(0.,0.,0.));
#326=CARTESIAN_POINT('',(-5.,0.,0.));
#327=CARTESIAN_POINT('',(0.,0.,-1.));
#328=CARTESIAN_POINT('',(-6.,0.,-1.));
#329=CARTESIAN_POINT('',(0.,0.,-1.));
#330=CARTESIAN_POINT('',(5.,0.,6.56746651543947E-17));
#331=CARTESIAN_POINT('',(0.,0.,-59.6973777319209));
#332=CARTESIAN_POINT('',(-5.7,0.,-59.6973777319209));
#333=CARTESIAN_POINT('',(0.,0.,-61.));
#334=CARTESIAN_POINT('',(-5.9976874406391,0.,-61.));
#335=CARTESIAN_POINT('',(-5.99768744063909,0.,-61.));
#336=CARTESIAN_POINT('',(-5.99768744063909,11.9953748812782,-61.));
#337=CARTESIAN_POINT('',(5.99768744063909,11.9953748812782,-61.));
#338=CARTESIAN_POINT('',(5.99768744063909,0.,-61.));
#339=CARTESIAN_POINT('',(5.99768744063909,-11.9953748812782,-61.));
#340=CARTESIAN_POINT('',(-5.99768744063909,-11.9953748812782,-61.));
#341=CARTESIAN_POINT('',(-5.99768744063909,0.,-61.));
#342=CARTESIAN_POINT('',(-5.997647910202,0.,-60.5470145595714));
#343=CARTESIAN_POINT('',(-5.997647910202,11.995295820404,-60.5470145595714));
#344=CARTESIAN_POINT('',(5.997647910202,11.995295820404,-60.5470145595714));
#345=CARTESIAN_POINT('',(5.997647910202,0.,-60.5470145595714));
#346=CARTESIAN_POINT('',(5.997647910202,-11.995295820404,-60.5470145595714));
#347=CARTESIAN_POINT('',(-5.997647910202,-11.995295820404,-60.5470145595714));
#348=CARTESIAN_POINT('',(-5.997647910202,0.,-60.5470145595714));
#349=CARTESIAN_POINT('',(-5.89672917179199,0.,-60.1054138133757));
#350=CARTESIAN_POINT('',(-5.89672917179199,11.793458343584,-60.1054138133757));
#351=CARTESIAN_POINT('',(5.89672917179199,11.793458343584,-60.1054138133757));
#352=CARTESIAN_POINT('',(5.89672917179199,0.,-60.1054138133757));
#353=CARTESIAN_POINT('',(5.89672917179199,-11.793458343584,-60.1054138133757));
#354=CARTESIAN_POINT('',(-5.89672917179199,-11.793458343584,-60.1054138133757));
#355=CARTESIAN_POINT('',(-5.89672917179199,0.,-60.1054138133757));
#356=CARTESIAN_POINT('',(-5.7,0.,-59.6973777319209));
#357=CARTESIAN_POINT('',(-5.7,11.4,-59.6973777319209));
#358=CARTESIAN_POINT('',(5.7,11.4,-59.6973777319209));
#359=CARTESIAN_POINT('',(5.7,0.,-59.6973777319209));
#360=CARTESIAN_POINT('',(5.7,-11.4,-59.6973777319209));
#361=CARTESIAN_POINT('',(-5.7,-11.4,-59.6973777319209));
#362=CARTESIAN_POINT('',(-5.7,0.,-59.6973777319209));
#363=CARTESIAN_POINT('',(0.,0.,-49.));
#364=CARTESIAN_POINT('',(-5.7,0.,-49.));
#365=CARTESIAN_POINT('',(0.,0.,-45.));
#366=CARTESIAN_POINT('',(0.,0.,-47.2941277890768));
#367=CARTESIAN_POINT('',(-6.,0.,-47.2941277890768));
#368=CARTESIAN_POINT('',(0.,0.,-49.));
#369=CARTESIAN_POINT('',(0.,0.,-45.));
#370=CARTESIAN_POINT('',(0.,0.,-61.));
#371=CARTESIAN_POINT('',(0.,0.,-88.));
#372=CARTESIAN_POINT('',(0.600000000000008,7.34788079488422E-17,-88.));
#373=CARTESIAN_POINT('',(0.,0.,-88.));
#374=CARTESIAN_POINT('',(-5.5,0.,-88.));
#375=CARTESIAN_POINT('',(-1.33226762955019E-15,0.,-88.));
#376=CARTESIAN_POINT('',(0.,0.,-87.4999563667688));
#377=CARTESIAN_POINT('',(-5.99999999809616,0.,-87.4999563667688));
#378=CARTESIAN_POINT('',(0.,0.,-87.5));
#379=CARTESIAN_POINT('',(0.,0.,-61.));
#380=CARTESIAN_POINT('',(-5.99768744063909,0.,-61.));
#381=CARTESIAN_POINT('',(0.,0.,-87.4999563667688));
#382=CARTESIAN_POINT('',(0.,0.,-61.));
#383=CARTESIAN_POINT('',(0.,0.,-87.88));
#384=CARTESIAN_POINT('',(0.600000000000008,7.34788079488422E-17,-87.88));
#385=CARTESIAN_POINT('',(0.,0.,-87.88));
#386=CARTESIAN_POINT('',(0.,0.,-87.88));
#387=MECHANICAL_DESIGN_GEOMETRIC_PRESENTATION_REPRESENTATION('',(#186,#187,
#188,#189,#190,#191,#192),#388);
#388=(
GEOMETRIC_REPRESENTATION_CONTEXT(3)
GLOBAL_UNCERTAINTY_ASSIGNED_CONTEXT((#389))
GLOBAL_UNIT_ASSIGNED_CONTEXT((#395,#391,#390))
REPRESENTATION_CONTEXT('S4651-120E2R050','TOP_LEVEL_ASSEMBLY_PART')
);
#389=UNCERTAINTY_MEASURE_WITH_UNIT(LENGTH_MEASURE(0.0254),#395,
'DISTANCE_ACCURACY_VALUE','Maximum Tolerance applied to model');
#390=(
NAMED_UNIT(*)
SI_UNIT($,.STERADIAN.)
SOLID_ANGLE_UNIT()
);
#391=(
CONVERSION_BASED_UNIT('DEGREE',#393)
NAMED_UNIT(#392)
PLANE_ANGLE_UNIT()
);
#392=DIMENSIONAL_EXPONENTS(0.,0.,0.,0.,0.,0.,0.);
#393=PLANE_ANGLE_MEASURE_WITH_UNIT(PLANE_ANGLE_MEASURE(0.0174532925),#394);
#394=(
NAMED_UNIT(*)
PLANE_ANGLE_UNIT()
SI_UNIT($,.RADIAN.)
);
#395=(
LENGTH_UNIT()
NAMED_UNIT(*)
SI_UNIT(.MILLI.,.METRE.)
);
ENDSEC;
END-ISO-10303-21;
