ISO-10303-21;
HEADER;
/* Generated by software containing ST-Developer
 * from STEP Tools, Inc. (www.steptools.com) 
 */
/* OPTION: using custom schema-name function */

FILE_DESCRIPTION(
/* description */ (''),
/* implementation_level */ '2;1');

FILE_NAME(
/* name */ 'S4651-120E4R300.0Z5AC_Basic.stp',
/* time_stamp */ '2024-05-10T08:42:50+05:00',
/* author */ (''),
/* organization */ (''),
/* preprocessor_version */ 'ST-DEVELOPER v18.102',
/* originating_system */ 'SIEMENS PLM Software NX2206.8101',
/* authorisation */ '');

FILE_SCHEMA (('AUTOMOTIVE_DESIGN { 1 0 10303 214 3 1 1 1 }'));
ENDSEC;

DATA;
#10=CONSTRUCTIVE_GEOMETRY_REPRESENTATION_RELATIONSHIP(
'supplemental geometry','',#34,#11);
#11=CONSTRUCTIVE_GEOMETRY_REPRESENTATION('supplemental geometry',(#207,
#208,#209),#412);
#12=GEOMETRICALLY_BOUNDED_WIREFRAME_SHAPE_REPRESENTATION(
'inpu2ED478079488-None',(#35),#412);
#13=PROPERTY_DEFINITION_REPRESENTATION(#17,#15);
#14=PROPERTY_DEFINITION_REPRESENTATION(#18,#16);
#15=REPRESENTATION('',(#19),#412);
#16=REPRESENTATION('',(#20),#412);
#17=PROPERTY_DEFINITION('pmi validation property','',#25);
#18=PROPERTY_DEFINITION('pmi validation property','',#25);
#19=VALUE_REPRESENTATION_ITEM('number of annotations',COUNT_MEASURE(0.));
#20=VALUE_REPRESENTATION_ITEM('number of views',COUNT_MEASURE(0.));
#21=SHAPE_REPRESENTATION_RELATIONSHIP('None',
'relationship between inpu2ED478079488-None and inpu2ED478079488-None',
#34,#23);
#22=SHAPE_REPRESENTATION_RELATIONSHIP('None',
'relationship between inpu2ED478079488-None and inpu2ED478079488-None',
#34,#12);
#23=ADVANCED_BREP_SHAPE_REPRESENTATION('inpu2ED478079488-None',(#46,#47),
#412);
#24=SHAPE_DEFINITION_REPRESENTATION(#25,#34);
#25=PRODUCT_DEFINITION_SHAPE('','',#26);
#26=PRODUCT_DEFINITION(' ','',#28,#27);
#27=PRODUCT_DEFINITION_CONTEXT('part definition',#33,'design');
#28=PRODUCT_DEFINITION_FORMATION_WITH_SPECIFIED_SOURCE(' ',' ',#30,
 .NOT_KNOWN.);
#29=PRODUCT_RELATED_PRODUCT_CATEGORY('part','',(#30));
#30=PRODUCT('inpu2ED478079488','inpu2ED478079488',' ',(#31));
#31=PRODUCT_CONTEXT(' ',#33,'mechanical');
#32=APPLICATION_PROTOCOL_DEFINITION('international standard',
'automotive_design',2010,#33);
#33=APPLICATION_CONTEXT(
'core data for automotive mechanical design processes');
#34=SHAPE_REPRESENTATION('inpu2ED478079488-None',(#206),#412);
#35=GEOMETRIC_CURVE_SET('None',(#285,#184));
#36=SURFACE_STYLE_USAGE(.BOTH.,#38);
#37=SURFACE_STYLE_USAGE(.BOTH.,#39);
#38=SURFACE_SIDE_STYLE('',(#40));
#39=SURFACE_SIDE_STYLE('',(#41));
#40=SURFACE_STYLE_FILL_AREA(#42);
#41=SURFACE_STYLE_FILL_AREA(#43);
#42=FILL_AREA_STYLE('',(#44));
#43=FILL_AREA_STYLE('',(#45));
#44=FILL_AREA_STYLE_COLOUR('',#204);
#45=FILL_AREA_STYLE_COLOUR('',#205);
#46=MANIFOLD_SOLID_BREP('NOCUT',#48);
#47=MANIFOLD_SOLID_BREP('CUT',#49);
#48=CLOSED_SHELL('',(#65,#66,#67,#68,#69,#70,#71));
#49=CLOSED_SHELL('',(#72,#73,#74,#75,#76,#77));
#50=TOROIDAL_SURFACE('',#219,10.7,5.);
#51=CYLINDRICAL_SURFACE('',#217,5.7);
#52=CYLINDRICAL_SURFACE('',#220,6.);
#53=CYLINDRICAL_SURFACE('',#230,0.600000000000008);
#54=(
BOUNDED_SURFACE()
B_SPLINE_SURFACE(3,3,((#332,#333,#334,#335,#336,#337,#338),(#339,#340,#341,
#342,#343,#344,#345),(#346,#347,#348,#349,#350,#351,#352),(#353,#354,#355,
#356,#357,#358,#359)),.UNSPECIFIED.,.F.,.T.,.F.)
B_SPLINE_SURFACE_WITH_KNOTS((4,4),(1,3,3,3,1),(0.,1.),(-0.5,0.,0.5,1.,1.5),
 .UNSPECIFIED.)
GEOMETRIC_REPRESENTATION_ITEM()
RATIONAL_B_SPLINE_SURFACE(((1.,0.333333333333333,0.333333333333333,1.,0.333333333333333,
0.333333333333333,1.),(0.983364792112481,0.327788264037494,0.327788264037494,
0.983364792112481,0.327788264037494,0.327788264037494,0.983364792112481),
(0.983364792112481,0.327788264037494,0.327788264037494,0.983364792112481,
0.327788264037494,0.327788264037494,0.983364792112481),(1.,0.333333333333333,
0.333333333333333,1.,0.333333333333333,0.333333333333333,1.)))
REPRESENTATION_ITEM('')
SURFACE()
);
#55=(
BOUNDED_SURFACE()
B_SPLINE_SURFACE(3,3,((#375,#376,#377,#378,#379,#380,#381),(#382,#383,#384,
#385,#386,#387,#388),(#389,#390,#391,#392,#393,#394,#395),(#396,#397,#398,
#399,#400,#401,#402)),.UNSPECIFIED.,.F.,.T.,.F.)
B_SPLINE_SURFACE_WITH_KNOTS((4,4),(1,3,3,3,1),(0.,1.),(-0.5,0.,0.5,1.,1.5),
 .UNSPECIFIED.)
GEOMETRIC_REPRESENTATION_ITEM()
RATIONAL_B_SPLINE_SURFACE(((1.,0.333333333333333,0.333333333333333,1.,0.333333333333333,
0.333333333333333,1.),(0.804717284773137,0.268239094924379,0.268239094924379,
0.804717284773137,0.268239094924379,0.268239094924379,0.804717284773137),
(0.804717284773137,0.268239094924379,0.268239094924379,0.804717284773137,
0.268239094924379,0.268239094924379,0.804717284773137),(1.,0.333333333333333,
0.333333333333333,1.,0.333333333333333,0.333333333333333,1.)))
REPRESENTATION_ITEM('')
SURFACE()
);
#56=PLANE('',#213);
#57=PLANE('',#221);
#58=PLANE('',#224);
#59=PLANE('',#228);
#60=PLANE('',#231);
#61=FACE_OUTER_BOUND('',#100,.T.);
#62=FACE_OUTER_BOUND('',#109,.T.);
#63=FACE_OUTER_BOUND('',#116,.T.);
#64=FACE_OUTER_BOUND('',#119,.T.);
#65=ADVANCED_FACE('',(#80,#81),#78,.T.);
#66=ADVANCED_FACE('',(#61),#56,.T.);
#67=ADVANCED_FACE('',(#82,#83),#54,.T.);
#68=ADVANCED_FACE('',(#84,#85),#51,.T.);
#69=ADVANCED_FACE('',(#86,#87),#50,.F.);
#70=ADVANCED_FACE('',(#88,#89),#52,.T.);
#71=ADVANCED_FACE('',(#62),#57,.T.);
#72=ADVANCED_FACE('',(#90,#91),#58,.T.);
#73=ADVANCED_FACE('',(#92,#93),#55,.T.);
#74=ADVANCED_FACE('',(#94,#95),#79,.T.);
#75=ADVANCED_FACE('',(#63),#59,.F.);
#76=ADVANCED_FACE('',(#96,#97),#53,.F.);
#77=ADVANCED_FACE('',(#64),#60,.T.);
#78=CONICAL_SURFACE('',#212,6.,45.);
#79=CONICAL_SURFACE('',#227,5.99999998857687,0.00500000000002085);
#80=FACE_BOUND('',#98,.T.);
#81=FACE_BOUND('',#99,.T.);
#82=FACE_BOUND('',#101,.T.);
#83=FACE_BOUND('',#102,.T.);
#84=FACE_BOUND('',#103,.T.);
#85=FACE_BOUND('',#104,.T.);
#86=FACE_BOUND('',#105,.T.);
#87=FACE_BOUND('',#106,.T.);
#88=FACE_BOUND('',#107,.T.);
#89=FACE_BOUND('',#108,.T.);
#90=FACE_BOUND('',#110,.T.);
#91=FACE_BOUND('',#111,.T.);
#92=FACE_BOUND('',#112,.T.);
#93=FACE_BOUND('',#113,.T.);
#94=FACE_BOUND('',#114,.T.);
#95=FACE_BOUND('',#115,.T.);
#96=FACE_BOUND('',#117,.T.);
#97=FACE_BOUND('',#118,.T.);
#98=EDGE_LOOP('',(#120));
#99=EDGE_LOOP('',(#121));
#100=EDGE_LOOP('',(#122));
#101=EDGE_LOOP('',(#123));
#102=EDGE_LOOP('',(#124));
#103=EDGE_LOOP('',(#125));
#104=EDGE_LOOP('',(#126));
#105=EDGE_LOOP('',(#127));
#106=EDGE_LOOP('',(#128));
#107=EDGE_LOOP('',(#129));
#108=EDGE_LOOP('',(#130));
#109=EDGE_LOOP('',(#131));
#110=EDGE_LOOP('',(#132));
#111=EDGE_LOOP('',(#133));
#112=EDGE_LOOP('',(#134));
#113=EDGE_LOOP('',(#135));
#114=EDGE_LOOP('',(#136));
#115=EDGE_LOOP('',(#137));
#116=EDGE_LOOP('',(#138));
#117=EDGE_LOOP('',(#139));
#118=EDGE_LOOP('',(#140));
#119=EDGE_LOOP('',(#141));
#120=ORIENTED_EDGE('',*,*,#153,.T.);
#121=ORIENTED_EDGE('',*,*,#154,.F.);
#122=ORIENTED_EDGE('',*,*,#153,.F.);
#123=ORIENTED_EDGE('',*,*,#155,.T.);
#124=ORIENTED_EDGE('',*,*,#156,.F.);
#125=ORIENTED_EDGE('',*,*,#157,.T.);
#126=ORIENTED_EDGE('',*,*,#155,.F.);
#127=ORIENTED_EDGE('',*,*,#158,.T.);
#128=ORIENTED_EDGE('',*,*,#157,.F.);
#129=ORIENTED_EDGE('',*,*,#154,.T.);
#130=ORIENTED_EDGE('',*,*,#158,.F.);
#131=ORIENTED_EDGE('',*,*,#156,.T.);
#132=ORIENTED_EDGE('',*,*,#159,.F.);
#133=ORIENTED_EDGE('',*,*,#160,.T.);
#134=ORIENTED_EDGE('',*,*,#161,.T.);
#135=ORIENTED_EDGE('',*,*,#160,.F.);
#136=ORIENTED_EDGE('',*,*,#162,.F.);
#137=ORIENTED_EDGE('',*,*,#161,.F.);
#138=ORIENTED_EDGE('',*,*,#162,.T.);
#139=ORIENTED_EDGE('',*,*,#163,.T.);
#140=ORIENTED_EDGE('',*,*,#159,.T.);
#141=ORIENTED_EDGE('',*,*,#163,.F.);
#142=VERTEX_POINT('',#323);
#143=VERTEX_POINT('',#325);
#144=VERTEX_POINT('',#329);
#145=VERTEX_POINT('',#331);
#146=VERTEX_POINT('',#361);
#147=VERTEX_POINT('',#364);
#148=VERTEX_POINT('',#369);
#149=VERTEX_POINT('',#371);
#150=VERTEX_POINT('',#374);
#151=VERTEX_POINT('',#404);
#152=VERTEX_POINT('',#408);
#153=EDGE_CURVE('',#142,#142,#164,.T.);
#154=EDGE_CURVE('',#143,#143,#165,.T.);
#155=EDGE_CURVE('',#144,#144,#166,.T.);
#156=EDGE_CURVE('',#145,#145,#167,.T.);
#157=EDGE_CURVE('',#146,#146,#168,.T.);
#158=EDGE_CURVE('',#147,#147,#169,.T.);
#159=EDGE_CURVE('',#148,#148,#170,.T.);
#160=EDGE_CURVE('',#149,#149,#171,.T.);
#161=EDGE_CURVE('',#150,#150,#172,.T.);
#162=EDGE_CURVE('',#151,#151,#173,.T.);
#163=EDGE_CURVE('',#152,#152,#174,.T.);
#164=CIRCLE('',#210,5.);
#165=CIRCLE('',#211,6.);
#166=CIRCLE('',#214,5.7);
#167=CIRCLE('',#215,5.99581122120773);
#168=CIRCLE('',#216,5.7);
#169=CIRCLE('',#218,6.);
#170=CIRCLE('',#222,0.600000000000008);
#171=CIRCLE('',#223,3.);
#172=CIRCLE('',#225,5.99999998857687);
#173=CIRCLE('',#226,5.99581122120773);
#174=CIRCLE('',#229,0.600000000000008);
#175=CURVE_STYLE('',#180,POSITIVE_LENGTH_MEASURE(0.18),#179);
#176=CURVE_STYLE('',#181,POSITIVE_LENGTH_MEASURE(0.18),#203);
#177=CURVE_STYLE('',#182,POSITIVE_LENGTH_MEASURE(0.18),#203);
#178=CURVE_STYLE('',#183,POSITIVE_LENGTH_MEASURE(0.18),#203);
#179=DRAUGHTING_PRE_DEFINED_COLOUR('blue');
#180=DRAUGHTING_PRE_DEFINED_CURVE_FONT('continuous');
#181=DRAUGHTING_PRE_DEFINED_CURVE_FONT('continuous');
#182=DRAUGHTING_PRE_DEFINED_CURVE_FONT('continuous');
#183=DRAUGHTING_PRE_DEFINED_CURVE_FONT('continuous');
#184=B_SPLINE_CURVE_WITH_KNOTS('CUTTING PART LINE',3,(#286,#287,#288,#289,
#290,#291,#292,#293,#294,#295,#296,#297,#298,#299,#300,#301,#302,#303,#304,
#305,#306,#307,#308,#309,#310,#311,#312,#313,#314,#315,#316,#317,#318),
 .UNSPECIFIED.,.T.,.F.,(4,3,1,1,1,1,1,1,1,1,1,1,1,1,1,1,1,1,1,1,1,1,1,1,
1,3,4),(0.,0.4524959126,0.46580461595,0.4784478841325,0.4791133193,0.480419970778125,
0.48172662225625,0.4843399252125,0.48695322816875,0.489566531125,0.49217983408125,
0.4947931370375,0.49740643999375,0.50001974295,0.50263304590625,0.5052463488625,
0.50785965181875,0.510472954775,0.51308625773125,0.5156995606875,0.51831286364375,
0.519619515121875,0.5209261666,0.521591598138906,0.73386425905,0.9468023515,
1.),.UNSPECIFIED.);
#185=PRESENTATION_LAYER_ASSIGNMENT('1','Layer 1',(#285,#184,#207,#208,#209,
#46,#47));
#186=STYLED_ITEM('',(#193),#285);
#187=STYLED_ITEM('',(#194),#184);
#188=STYLED_ITEM('',(#195),#207);
#189=STYLED_ITEM('',(#196),#208);
#190=STYLED_ITEM('',(#197),#209);
#191=STYLED_ITEM('',(#198),#46);
#192=STYLED_ITEM('',(#199),#47);
#193=PRESENTATION_STYLE_ASSIGNMENT((#200));
#194=PRESENTATION_STYLE_ASSIGNMENT((#175));
#195=PRESENTATION_STYLE_ASSIGNMENT((#176));
#196=PRESENTATION_STYLE_ASSIGNMENT((#177));
#197=PRESENTATION_STYLE_ASSIGNMENT((#178));
#198=PRESENTATION_STYLE_ASSIGNMENT((#36));
#199=PRESENTATION_STYLE_ASSIGNMENT((#37));
#200=POINT_STYLE('',#201,POSITIVE_LENGTH_MEASURE(3.),#202);
#201=PRE_DEFINED_POINT_MARKER_SYMBOL('plus');
#202=COLOUR_RGB('Medium Royal',0.301960784313725,0.427450980392157,0.701960784313725);
#203=COLOUR_RGB('Pale Maroon',0.811764705882353,0.603921568627451,0.611764705882353);
#204=COLOUR_RGB('medium gray',0.490196078431373,0.490196078431373,0.490196078431373);
#205=COLOUR_RGB('light gray',0.8,0.8,0.8);
#206=AXIS2_PLACEMENT_3D('',#284,#232,#233);
#207=AXIS2_PLACEMENT_3D('MCS',#319,#234,#235);
#208=AXIS2_PLACEMENT_3D('CIP',#320,#236,#237);
#209=AXIS2_PLACEMENT_3D('PCS',#321,#238,#239);
#210=AXIS2_PLACEMENT_3D('',#322,#240,#241);
#211=AXIS2_PLACEMENT_3D('',#324,#242,#243);
#212=AXIS2_PLACEMENT_3D('',#326,#244,#245);
#213=AXIS2_PLACEMENT_3D('',#327,#246,#247);
#214=AXIS2_PLACEMENT_3D('',#328,#248,#249);
#215=AXIS2_PLACEMENT_3D('',#330,#250,#251);
#216=AXIS2_PLACEMENT_3D('',#360,#252,#253);
#217=AXIS2_PLACEMENT_3D('',#362,#254,#255);
#218=AXIS2_PLACEMENT_3D('',#363,#256,#257);
#219=AXIS2_PLACEMENT_3D('',#365,#258,#259);
#220=AXIS2_PLACEMENT_3D('',#366,#260,#261);
#221=AXIS2_PLACEMENT_3D('',#367,#262,#263);
#222=AXIS2_PLACEMENT_3D('',#368,#264,#265);
#223=AXIS2_PLACEMENT_3D('',#370,#266,#267);
#224=AXIS2_PLACEMENT_3D('',#372,#268,#269);
#225=AXIS2_PLACEMENT_3D('',#373,#270,#271);
#226=AXIS2_PLACEMENT_3D('',#403,#272,#273);
#227=AXIS2_PLACEMENT_3D('',#405,#274,#275);
#228=AXIS2_PLACEMENT_3D('',#406,#276,#277);
#229=AXIS2_PLACEMENT_3D('',#407,#278,#279);
#230=AXIS2_PLACEMENT_3D('',#409,#280,#281);
#231=AXIS2_PLACEMENT_3D('',#410,#282,#283);
#232=DIRECTION('',(0.,0.,1.));
#233=DIRECTION('',(1.,0.,0.));
#234=DIRECTION('',(0.,0.,1.));
#235=DIRECTION('',(1.,0.,0.));
#236=DIRECTION('',(0.,0.,1.));
#237=DIRECTION('',(1.,0.,0.));
#238=DIRECTION('',(0.,0.,1.));
#239=DIRECTION('',(1.,0.,0.));
#240=DIRECTION('',(0.,0.,-1.));
#241=DIRECTION('',(-1.,0.,0.));
#242=DIRECTION('',(0.,0.,-1.));
#243=DIRECTION('',(-1.,0.,0.));
#244=DIRECTION('',(0.,0.,-1.));
#245=DIRECTION('',(-1.,0.,1.10360141612839E-16));
#246=DIRECTION('',(0.,0.,1.));
#247=DIRECTION('',(1.,0.,0.));
#248=DIRECTION('',(0.,0.,-1.));
#249=DIRECTION('',(-1.,0.,0.));
#250=DIRECTION('',(0.,0.,-1.));
#251=DIRECTION('',(-1.,0.,0.));
#252=DIRECTION('',(0.,0.,-1.));
#253=DIRECTION('',(-1.,0.,0.));
#254=DIRECTION('',(0.,0.,-1.));
#255=DIRECTION('',(-1.,0.,0.));
#256=DIRECTION('',(0.,0.,-1.));
#257=DIRECTION('',(-1.,0.,0.));
#258=DIRECTION('',(0.,0.,-1.));
#259=DIRECTION('',(-1.,0.,0.));
#260=DIRECTION('',(0.,0.,-1.));
#261=DIRECTION('',(-1.,0.,0.));
#262=DIRECTION('',(0.,0.,-1.));
#263=DIRECTION('',(-1.,0.,0.));
#264=DIRECTION('',(0.,0.,-1.));
#265=DIRECTION('',(1.,1.22464679914735E-16,0.));
#266=DIRECTION('',(0.,0.,-1.));
#267=DIRECTION('',(-1.,0.,0.));
#268=DIRECTION('',(0.,0.,-1.));
#269=DIRECTION('',(-1.,0.,0.));
#270=DIRECTION('',(0.,0.,-1.));
#271=DIRECTION('',(-1.,0.,0.));
#272=DIRECTION('',(0.,0.,1.));
#273=DIRECTION('',(-1.,0.,0.));
#274=DIRECTION('',(0.,0.,-1.));
#275=DIRECTION('',(-1.,0.,6.83941860535424E-15));
#276=DIRECTION('',(0.,0.,-1.));
#277=DIRECTION('',(-1.,0.,0.));
#278=DIRECTION('',(0.,0.,1.));
#279=DIRECTION('',(1.,1.22464679914735E-16,0.));
#280=DIRECTION('',(0.,0.,-1.));
#281=DIRECTION('',(-1.,0.,0.));
#282=DIRECTION('',(0.,0.,-1.));
#283=DIRECTION('',(-1.,0.,0.));
#284=CARTESIAN_POINT('',(0.,0.,0.));
#285=CARTESIAN_POINT('CRP',(-6.,0.,-110.));
#286=CARTESIAN_POINT('',(0.,0.,-59.));
#287=CARTESIAN_POINT('',(0.,0.,-76.));
#288=CARTESIAN_POINT('',(0.,0.,-93.));
#289=CARTESIAN_POINT('',(0.,0.,-110.));
#290=CARTESIAN_POINT('',(-0.5,0.,-110.));
#291=CARTESIAN_POINT('',(-1.475,0.,-110.));
#292=CARTESIAN_POINT('',(-2.475,0.,-110.));
#293=CARTESIAN_POINT('',(-3.0240901169903,0.,-110.000307059897));
#294=CARTESIAN_POINT('',(-3.14727029869102,0.,-109.997588223242));
#295=CARTESIAN_POINT('',(-3.34315779124763,0.,-109.983140796929));
#296=CARTESIAN_POINT('',(-3.5862441423443,0.,-109.947080316743));
#297=CARTESIAN_POINT('',(-3.87230128234404,0.,-109.875422580388));
#298=CARTESIAN_POINT('',(-4.14995675573601,0.,-109.776069892437));
#299=CARTESIAN_POINT('',(-4.41653628171778,0.,-109.649979151912));
#300=CARTESIAN_POINT('',(-4.66947228139189,0.,-109.498364843131));
#301=CARTESIAN_POINT('',(-4.90632855688309,0.,-109.322687231689));
#302=CARTESIAN_POINT('',(-5.12482381789344,0.,-109.124638399993));
#303=CARTESIAN_POINT('',(-5.32285358115199,0.,-108.906125857213));
#304=CARTESIAN_POINT('',(-5.49851052249743,0.,-108.669254251675));
#305=CARTESIAN_POINT('',(-5.65010275786685,0.,-108.416305022146));
#306=CARTESIAN_POINT('',(-5.77617023450057,0.,-108.149714493619));
#307=CARTESIAN_POINT('',(-5.8754986920975,0.,-107.872050351059));
#308=CARTESIAN_POINT('',(-5.9471314650167,0.,-107.585986958665));
#309=CARTESIAN_POINT('',(-5.9831707317698,0.,-107.342897461457));
#310=CARTESIAN_POINT('',(-5.99760106359341,0.,-107.147008709117));
#311=CARTESIAN_POINT('',(-6.00030914906812,0.,-107.023828427083));
#312=CARTESIAN_POINT('',(-5.99929967903232,0.,-98.9747819701976));
#313=CARTESIAN_POINT('',(-5.99790342324262,0.,-82.9748692366601));
#314=CARTESIAN_POINT('',(-5.99650934910259,0.,-66.9999563667688));
#315=CARTESIAN_POINT('',(-5.99581122120774,0.,-59.));
#316=CARTESIAN_POINT('',(-3.99720748080516,0.,-59.));
#317=CARTESIAN_POINT('',(-1.99860374040258,0.,-59.));
#318=CARTESIAN_POINT('',(0.,0.,-59.));
#319=CARTESIAN_POINT('',(0.,0.,-45.));
#320=CARTESIAN_POINT('',(0.,0.,-110.));
#321=CARTESIAN_POINT('',(0.,0.,0.));
#322=CARTESIAN_POINT('',(0.,0.,0.));
#323=CARTESIAN_POINT('',(-5.,0.,0.));
#324=CARTESIAN_POINT('',(0.,0.,-1.));
#325=CARTESIAN_POINT('',(-6.,0.,-1.));
#326=CARTESIAN_POINT('',(0.,0.,-1.));
#327=CARTESIAN_POINT('',(5.,0.,6.56746651543947E-17));
#328=CARTESIAN_POINT('',(0.,0.,-57.7012763835976));
#329=CARTESIAN_POINT('',(-5.7,0.,-57.7012763835976));
#330=CARTESIAN_POINT('',(0.,0.,-59.));
#331=CARTESIAN_POINT('',(-5.99581122120773,0.,-59.));
#332=CARTESIAN_POINT('',(-5.99581122120773,0.,-59.));
#333=CARTESIAN_POINT('',(-5.99581122120773,11.9916224424155,-59.));
#334=CARTESIAN_POINT('',(5.99581122120773,11.9916224424155,-59.));
#335=CARTESIAN_POINT('',(5.99581122120773,0.,-59.));
#336=CARTESIAN_POINT('',(5.99581122120773,-11.9916224424155,-59.));
#337=CARTESIAN_POINT('',(-5.99581122120773,-11.9916224424155,-59.));
#338=CARTESIAN_POINT('',(-5.99581122120773,0.,-59.));
#339=CARTESIAN_POINT('',(-5.99577181984923,0.,-58.5484936911964));
#340=CARTESIAN_POINT('',(-5.99577181984923,11.9915436396985,-58.5484936911964));
#341=CARTESIAN_POINT('',(5.99577181984923,11.9915436396985,-58.5484936911964));
#342=CARTESIAN_POINT('',(5.99577181984923,0.,-58.5484936911964));
#343=CARTESIAN_POINT('',(5.99577181984923,-11.9915436396985,-58.5484936911964));
#344=CARTESIAN_POINT('',(-5.99577181984923,-11.9915436396985,-58.5484936911964));
#345=CARTESIAN_POINT('',(-5.99577181984923,0.,-58.5484936911964));
#346=CARTESIAN_POINT('',(-5.89550003750205,0.,-58.1082624813683));
#347=CARTESIAN_POINT('',(-5.89550003750205,11.7910000750041,-58.1082624813683));
#348=CARTESIAN_POINT('',(5.89550003750205,11.7910000750041,-58.1082624813683));
#349=CARTESIAN_POINT('',(5.89550003750205,0.,-58.1082624813683));
#350=CARTESIAN_POINT('',(5.89550003750205,-11.7910000750041,-58.1082624813683));
#351=CARTESIAN_POINT('',(-5.89550003750205,-11.7910000750041,-58.1082624813683));
#352=CARTESIAN_POINT('',(-5.89550003750205,0.,-58.1082624813683));
#353=CARTESIAN_POINT('',(-5.7,0.,-57.7012763835976));
#354=CARTESIAN_POINT('',(-5.7,11.4,-57.7012763835976));
#355=CARTESIAN_POINT('',(5.7,11.4,-57.7012763835976));
#356=CARTESIAN_POINT('',(5.7,0.,-57.7012763835976));
#357=CARTESIAN_POINT('',(5.7,-11.4,-57.7012763835976));
#358=CARTESIAN_POINT('',(-5.7,-11.4,-57.7012763835976));
#359=CARTESIAN_POINT('',(-5.7,0.,-57.7012763835976));
#360=CARTESIAN_POINT('',(0.,0.,-47.));
#361=CARTESIAN_POINT('',(-5.7,0.,-47.));
#362=CARTESIAN_POINT('',(0.,0.,-45.));
#363=CARTESIAN_POINT('',(0.,0.,-45.2941277890768));
#364=CARTESIAN_POINT('',(-6.,0.,-45.2941277890768));
#365=CARTESIAN_POINT('',(0.,0.,-47.));
#366=CARTESIAN_POINT('',(0.,0.,-45.));
#367=CARTESIAN_POINT('',(0.,0.,-59.));
#368=CARTESIAN_POINT('',(0.,0.,-110.));
#369=CARTESIAN_POINT('',(0.600000000000008,7.34788079488422E-17,-110.));
#370=CARTESIAN_POINT('',(0.,0.,-110.));
#371=CARTESIAN_POINT('',(-3.,0.,-110.));
#372=CARTESIAN_POINT('',(1.33226762955019E-15,0.,-110.));
#373=CARTESIAN_POINT('',(0.,0.,-106.999738200613));
#374=CARTESIAN_POINT('',(-5.99999998857687,0.,-106.999738200613));
#375=CARTESIAN_POINT('',(-3.,0.,-110.));
#376=CARTESIAN_POINT('',(-3.,6.00000000000001,-110.));
#377=CARTESIAN_POINT('',(3.,6.00000000000001,-110.));
#378=CARTESIAN_POINT('',(3.,0.,-110.));
#379=CARTESIAN_POINT('',(3.,-6.00000000000001,-110.));
#380=CARTESIAN_POINT('',(-3.,-6.00000000000001,-110.));
#381=CARTESIAN_POINT('',(-3.,0.,-110.));
#382=CARTESIAN_POINT('',(-4.75748091223495,0.,-110.));
#383=CARTESIAN_POINT('',(-4.75748091223495,9.5149618244699,-110.));
#384=CARTESIAN_POINT('',(4.75748091223495,9.5149618244699,-110.));
#385=CARTESIAN_POINT('',(4.75748091223495,0.,-110.));
#386=CARTESIAN_POINT('',(4.75748091223495,-9.5149618244699,-110.));
#387=CARTESIAN_POINT('',(-4.75748091223495,-9.5149618244699,-110.));
#388=CARTESIAN_POINT('',(-4.75748091223495,0.,-110.));
#389=CARTESIAN_POINT('',(-6.00015335771896,0.,-108.757219106155));
#390=CARTESIAN_POINT('',(-6.00015335771896,12.0003067154379,-108.757219106155));
#391=CARTESIAN_POINT('',(6.00015335771896,12.0003067154379,-108.757219106155));
#392=CARTESIAN_POINT('',(6.00015335771896,0.,-108.757219106155));
#393=CARTESIAN_POINT('',(6.00015335771896,-12.0003067154379,-108.757219106155));
#394=CARTESIAN_POINT('',(-6.00015335771896,-12.0003067154379,-108.757219106155));
#395=CARTESIAN_POINT('',(-6.00015335771896,0.,-108.757219106155));
#396=CARTESIAN_POINT('',(-5.99999998857686,0.,-106.999738200613));
#397=CARTESIAN_POINT('',(-5.99999998857686,11.9999999771537,-106.999738200613));
#398=CARTESIAN_POINT('',(5.99999998857686,11.9999999771537,-106.999738200613));
#399=CARTESIAN_POINT('',(5.99999998857686,0.,-106.999738200613));
#400=CARTESIAN_POINT('',(5.99999998857686,-11.9999999771537,-106.999738200613));
#401=CARTESIAN_POINT('',(-5.99999998857686,-11.9999999771537,-106.999738200613));
#402=CARTESIAN_POINT('',(-5.99999998857686,0.,-106.999738200613));
#403=CARTESIAN_POINT('',(0.,0.,-59.));
#404=CARTESIAN_POINT('',(-5.99581122120773,0.,-59.));
#405=CARTESIAN_POINT('',(0.,0.,-106.999738200613));
#406=CARTESIAN_POINT('',(0.,0.,-59.));
#407=CARTESIAN_POINT('',(0.,0.,-109.88));
#408=CARTESIAN_POINT('',(0.600000000000008,7.34788079488422E-17,-109.88));
#409=CARTESIAN_POINT('',(0.,0.,-109.88));
#410=CARTESIAN_POINT('',(0.,0.,-109.88));
#411=MECHANICAL_DESIGN_GEOMETRIC_PRESENTATION_REPRESENTATION('',(#186,#187,
#188,#189,#190,#191,#192),#412);
#412=(
GEOMETRIC_REPRESENTATION_CONTEXT(3)
GLOBAL_UNCERTAINTY_ASSIGNED_CONTEXT((#413))
GLOBAL_UNIT_ASSIGNED_CONTEXT((#419,#415,#414))
REPRESENTATION_CONTEXT('S4651-120E4R300','TOP_LEVEL_ASSEMBLY_PART')
);
#413=UNCERTAINTY_MEASURE_WITH_UNIT(LENGTH_MEASURE(0.0254),#419,
'DISTANCE_ACCURACY_VALUE','Maximum Tolerance applied to model');
#414=(
NAMED_UNIT(*)
SI_UNIT($,.STERADIAN.)
SOLID_ANGLE_UNIT()
);
#415=(
CONVERSION_BASED_UNIT('DEGREE',#417)
NAMED_UNIT(#416)
PLANE_ANGLE_UNIT()
);
#416=DIMENSIONAL_EXPONENTS(0.,0.,0.,0.,0.,0.,0.);
#417=PLANE_ANGLE_MEASURE_WITH_UNIT(PLANE_ANGLE_MEASURE(0.0174532925),#418);
#418=(
NAMED_UNIT(*)
PLANE_ANGLE_UNIT()
SI_UNIT($,.RADIAN.)
);
#419=(
LENGTH_UNIT()
NAMED_UNIT(*)
SI_UNIT(.MILLI.,.METRE.)
);
ENDSEC;
END-ISO-10303-21;
